999
Outputted By AR_CAD Ver.1.3.2
  0
SECTION
  2
HEADER
  9
$ACADVER
  1
AC1009
  9
$DWGCODEPAGE
  3
DOS932
  9
$EXTMIN
 10
0
 20
0
  9
$EXTMAX
 10
297
 20
210
  9
$INSBASE
 10
0.0
 20
0.0
 30
0.0
  9
$HANDLING
 70
     1
  9
$LTSCALE
 40
1
  0
ENDSEC
  0
SECTION
  2
TABLES
  0
TABLE
  2
LTYPE
 70
     7
  0
LTYPE
  2
BYBLOCK
 70
    64
 3

 72
    65
 73
    0
 40
    0
  0
LTYPE
  2
BYLAYER
 70
    64
 3

 72
    65
 73
    0
 40
    0
  0
LTYPE
  2
CONTINUOUS
 70
    64
 3
CONTINUOUS
 72
    65
 73
    0
 40
    0
  0
LTYPE
  2
DASHED
 70
    64
 3

 72
    65
 73
    2
 40
    0.75
 49
    0.5
 49
    -0.25
  0
LTYPE
  2
DOT
 70
    64
 3

 72
    65
 73
    2
 40
    0.25
 49
    0
 49
    -0.25
  0
LTYPE
  2
DASHDOT
 70
    64
 3

 72
    65
 73
    4
 40
    1
 49
    0.5
 49
    -0.25
 49
    0
 49
    -0.25
  0
LTYPE
  2
DIVIDE
 70
    64
 3

 72
    65
 73
    6
 40
    1.25
 49
    0.5
 49
    -0.25
 49
    0
 49
    -0.25
 49
    0
 49
    -0.25
  0
LTYPE
  2
HIDDEN
 70
    64
 3

 72
    65
 73
    2
 40
    0.375
 49
    0.25
 49
    -0.125
  0
ENDTAB
  0
TABLE
  2
LAYER
 70
   257
  0
LAYER
  2
1
 70
    0
 62
7
  6
CONTINUOUS
  0
LAYER
  2
2
 70
    0
 62
2
  6
CONTINUOUS
  0
LAYER
  2
3
 70
    0
 62
6
  6
CONTINUOUS
  0
LAYER
  2
4
 70
    0
 62
5
  6
CONTINUOUS
  0
LAYER
  2
5
 70
    0
 62
4
  6
CONTINUOUS
  0
LAYER
  2
6
 70
    0
 62
7
  6
CONTINUOUS
  0
LAYER
  2
7
 70
    0
 62
7
  6
CONTINUOUS
  0
LAYER
  2
8
 70
    0
 62
2
  6
CONTINUOUS
  0
LAYER
  2
9
 70
    0
 62
6
  6
CONTINUOUS
  0
LAYER
  2
10
 70
    0
 62
5
  6
CONTINUOUS
  0
LAYER
  2
11
 70
    0
 62
4
  6
CONTINUOUS
  0
LAYER
  2
12
 70
    0
 62
7
  6
CONTINUOUS
  0
LAYER
  2
13
 70
    0
 62
2
  6
CONTINUOUS
  0
LAYER
  2
14
 70
    0
 62
6
  6
CONTINUOUS
  0
LAYER
  2
15
 70
    0
 62
5
  6
CONTINUOUS
  0
LAYER
  2
16
 70
    0
 62
4
  6
CONTINUOUS
  0
LAYER
  2
画層16
 70
    0
 62
7
  6
CONTINUOUS
  0
LAYER
  2
画層17
 70
    0
 62
70
  6
CONTINUOUS
  0
LAYER
  2
画層18
 70
    0
 62
211
  6
CONTINUOUS
  0
LAYER
  2
画層19
 70
    0
 62
137
  6
CONTINUOUS
  0
LAYER
  2
画層20
 70
    0
 62
4
  6
CONTINUOUS
  0
LAYER
  2
画層21
 70
    0
 62
131
  6
CONTINUOUS
  0
LAYER
  2
画層22
 70
    0
 62
4
  6
CONTINUOUS
  0
LAYER
  2
画層23
 70
    0
 62
4
  6
CONTINUOUS
  0
LAYER
  2
画層24
 70
    0
 62
7
  6
CONTINUOUS
  0
LAYER
  2
画層25
 70
    0
 62
7
  6
CONTINUOUS
  0
LAYER
  2
画層26
 70
    0
 62
7
  6
CONTINUOUS
  0
LAYER
  2
画層27
 70
    0
 62
7
  6
CONTINUOUS
  0
LAYER
  2
画層28
 70
    0
 62
7
  6
CONTINUOUS
  0
LAYER
  2
画層29
 70
    0
 62
7
  6
CONTINUOUS
  0
LAYER
  2
画層30
 70
    0
 62
7
  6
CONTINUOUS
  0
LAYER
  2
画層31
 70
    0
 62
7
  6
CONTINUOUS
  0
LAYER
  2
画層32
 70
    0
 62
7
  6
CONTINUOUS
  0
LAYER
  2
画層33
 70
    0
 62
7
  6
CONTINUOUS
  0
LAYER
  2
画層34
 70
    0
 62
7
  6
CONTINUOUS
  0
LAYER
  2
画層35
 70
    0
 62
7
  6
CONTINUOUS
  0
LAYER
  2
画層36
 70
    0
 62
7
  6
CONTINUOUS
  0
LAYER
  2
画層37
 70
    0
 62
7
  6
CONTINUOUS
  0
LAYER
  2
画層38
 70
    0
 62
7
  6
CONTINUOUS
  0
LAYER
  2
画層39
 70
    0
 62
7
  6
CONTINUOUS
  0
LAYER
  2
画層40
 70
    0
 62
7
  6
CONTINUOUS
  0
LAYER
  2
画層41
 70
    0
 62
7
  6
CONTINUOUS
  0
LAYER
  2
画層42
 70
    0
 62
7
  6
CONTINUOUS
  0
LAYER
  2
画層43
 70
    0
 62
7
  6
CONTINUOUS
  0
LAYER
  2
画層44
 70
    0
 62
7
  6
CONTINUOUS
  0
LAYER
  2
画層45
 70
    0
 62
7
  6
CONTINUOUS
  0
LAYER
  2
画層46
 70
    0
 62
7
  6
CONTINUOUS
  0
LAYER
  2
画層47
 70
    0
 62
7
  6
CONTINUOUS
  0
LAYER
  2
画層48
 70
    0
 62
7
  6
CONTINUOUS
  0
LAYER
  2
画層49
 70
    0
 62
7
  6
CONTINUOUS
  0
LAYER
  2
画層50
 70
    0
 62
7
  6
CONTINUOUS
  0
LAYER
  2
画層51
 70
    0
 62
7
  6
CONTINUOUS
  0
LAYER
  2
画層52
 70
    0
 62
7
  6
CONTINUOUS
  0
LAYER
  2
画層53
 70
    0
 62
7
  6
CONTINUOUS
  0
LAYER
  2
画層54
 70
    0
 62
7
  6
CONTINUOUS
  0
LAYER
  2
画層55
 70
    0
 62
7
  6
CONTINUOUS
  0
LAYER
  2
画層56
 70
    0
 62
7
  6
CONTINUOUS
  0
LAYER
  2
画層57
 70
    0
 62
7
  6
CONTINUOUS
  0
LAYER
  2
画層58
 70
    0
 62
7
  6
CONTINUOUS
  0
LAYER
  2
画層59
 70
    0
 62
7
  6
CONTINUOUS
  0
LAYER
  2
画層60
 70
    0
 62
7
  6
CONTINUOUS
  0
LAYER
  2
画層61
 70
    0
 62
7
  6
CONTINUOUS
  0
LAYER
  2
画層62
 70
    0
 62
7
  6
CONTINUOUS
  0
LAYER
  2
画層63
 70
    0
 62
7
  6
CONTINUOUS
  0
LAYER
  2
画層64
 70
    0
 62
7
  6
CONTINUOUS
  0
LAYER
  2
画層65
 70
    0
 62
7
  6
CONTINUOUS
  0
LAYER
  2
画層66
 70
    0
 62
7
  6
CONTINUOUS
  0
LAYER
  2
画層67
 70
    0
 62
7
  6
CONTINUOUS
  0
LAYER
  2
画層68
 70
    0
 62
7
  6
CONTINUOUS
  0
LAYER
  2
画層69
 70
    0
 62
7
  6
CONTINUOUS
  0
LAYER
  2
画層70
 70
    0
 62
7
  6
CONTINUOUS
  0
LAYER
  2
画層71
 70
    0
 62
7
  6
CONTINUOUS
  0
LAYER
  2
画層72
 70
    0
 62
7
  6
CONTINUOUS
  0
LAYER
  2
画層73
 70
    0
 62
7
  6
CONTINUOUS
  0
LAYER
  2
画層74
 70
    0
 62
7
  6
CONTINUOUS
  0
LAYER
  2
画層75
 70
    0
 62
7
  6
CONTINUOUS
  0
LAYER
  2
画層76
 70
    0
 62
7
  6
CONTINUOUS
  0
LAYER
  2
画層77
 70
    0
 62
7
  6
CONTINUOUS
  0
LAYER
  2
画層78
 70
    0
 62
7
  6
CONTINUOUS
  0
LAYER
  2
画層79
 70
    0
 62
7
  6
CONTINUOUS
  0
LAYER
  2
画層80
 70
    0
 62
7
  6
CONTINUOUS
  0
LAYER
  2
画層81
 70
    0
 62
7
  6
CONTINUOUS
  0
LAYER
  2
画層82
 70
    0
 62
7
  6
CONTINUOUS
  0
LAYER
  2
画層83
 70
    0
 62
7
  6
CONTINUOUS
  0
LAYER
  2
画層84
 70
    0
 62
7
  6
CONTINUOUS
  0
LAYER
  2
画層85
 70
    0
 62
7
  6
CONTINUOUS
  0
LAYER
  2
画層86
 70
    0
 62
7
  6
CONTINUOUS
  0
LAYER
  2
画層87
 70
    0
 62
7
  6
CONTINUOUS
  0
LAYER
  2
画層88
 70
    0
 62
7
  6
CONTINUOUS
  0
LAYER
  2
画層89
 70
    0
 62
7
  6
CONTINUOUS
  0
LAYER
  2
画層90
 70
    0
 62
7
  6
CONTINUOUS
  0
LAYER
  2
画層91
 70
    0
 62
7
  6
CONTINUOUS
  0
LAYER
  2
画層92
 70
    0
 62
7
  6
CONTINUOUS
  0
LAYER
  2
画層93
 70
    0
 62
7
  6
CONTINUOUS
  0
LAYER
  2
画層94
 70
    0
 62
7
  6
CONTINUOUS
  0
LAYER
  2
画層95
 70
    0
 62
7
  6
CONTINUOUS
  0
LAYER
  2
画層96
 70
    0
 62
7
  6
CONTINUOUS
  0
LAYER
  2
画層97
 70
    0
 62
7
  6
CONTINUOUS
  0
LAYER
  2
画層98
 70
    0
 62
7
  6
CONTINUOUS
  0
LAYER
  2
画層99
 70
    0
 62
7
  6
CONTINUOUS
  0
LAYER
  2
画層100
 70
    0
 62
7
  6
CONTINUOUS
  0
LAYER
  2
画層101
 70
    0
 62
7
  6
CONTINUOUS
  0
LAYER
  2
画層102
 70
    0
 62
7
  6
CONTINUOUS
  0
LAYER
  2
画層103
 70
    0
 62
7
  6
CONTINUOUS
  0
LAYER
  2
画層104
 70
    0
 62
7
  6
CONTINUOUS
  0
LAYER
  2
画層105
 70
    0
 62
7
  6
CONTINUOUS
  0
LAYER
  2
画層106
 70
    0
 62
7
  6
CONTINUOUS
  0
LAYER
  2
画層107
 70
    0
 62
7
  6
CONTINUOUS
  0
LAYER
  2
画層108
 70
    0
 62
7
  6
CONTINUOUS
  0
LAYER
  2
画層109
 70
    0
 62
7
  6
CONTINUOUS
  0
LAYER
  2
画層110
 70
    0
 62
7
  6
CONTINUOUS
  0
LAYER
  2
画層111
 70
    0
 62
7
  6
CONTINUOUS
  0
LAYER
  2
画層112
 70
    0
 62
7
  6
CONTINUOUS
  0
LAYER
  2
画層113
 70
    0
 62
7
  6
CONTINUOUS
  0
LAYER
  2
画層114
 70
    0
 62
7
  6
CONTINUOUS
  0
LAYER
  2
画層115
 70
    0
 62
7
  6
CONTINUOUS
  0
LAYER
  2
画層116
 70
    0
 62
7
  6
CONTINUOUS
  0
LAYER
  2
画層117
 70
    0
 62
7
  6
CONTINUOUS
  0
LAYER
  2
画層118
 70
    0
 62
7
  6
CONTINUOUS
  0
LAYER
  2
画層119
 70
    0
 62
7
  6
CONTINUOUS
  0
LAYER
  2
画層120
 70
    0
 62
7
  6
CONTINUOUS
  0
LAYER
  2
画層121
 70
    0
 62
7
  6
CONTINUOUS
  0
LAYER
  2
画層122
 70
    0
 62
7
  6
CONTINUOUS
  0
LAYER
  2
画層123
 70
    0
 62
7
  6
CONTINUOUS
  0
LAYER
  2
画層124
 70
    0
 62
7
  6
CONTINUOUS
  0
LAYER
  2
画層125
 70
    0
 62
7
  6
CONTINUOUS
  0
LAYER
  2
画層126
 70
    0
 62
7
  6
CONTINUOUS
  0
LAYER
  2
画層127
 70
    0
 62
7
  6
CONTINUOUS
  0
LAYER
  2
画層128
 70
    0
 62
7
  6
CONTINUOUS
  0
LAYER
  2
画層129
 70
    0
 62
7
  6
CONTINUOUS
  0
LAYER
  2
画層130
 70
    0
 62
7
  6
CONTINUOUS
  0
LAYER
  2
画層131
 70
    0
 62
7
  6
CONTINUOUS
  0
LAYER
  2
画層132
 70
    0
 62
7
  6
CONTINUOUS
  0
LAYER
  2
画層133
 70
    0
 62
7
  6
CONTINUOUS
  0
LAYER
  2
画層134
 70
    0
 62
7
  6
CONTINUOUS
  0
LAYER
  2
画層135
 70
    0
 62
7
  6
CONTINUOUS
  0
LAYER
  2
画層136
 70
    0
 62
7
  6
CONTINUOUS
  0
LAYER
  2
画層137
 70
    0
 62
7
  6
CONTINUOUS
  0
LAYER
  2
画層138
 70
    0
 62
7
  6
CONTINUOUS
  0
LAYER
  2
画層139
 70
    0
 62
7
  6
CONTINUOUS
  0
LAYER
  2
画層140
 70
    0
 62
7
  6
CONTINUOUS
  0
LAYER
  2
画層141
 70
    0
 62
7
  6
CONTINUOUS
  0
LAYER
  2
画層142
 70
    0
 62
7
  6
CONTINUOUS
  0
LAYER
  2
画層143
 70
    0
 62
7
  6
CONTINUOUS
  0
LAYER
  2
画層144
 70
    0
 62
7
  6
CONTINUOUS
  0
LAYER
  2
画層145
 70
    0
 62
7
  6
CONTINUOUS
  0
LAYER
  2
画層146
 70
    0
 62
7
  6
CONTINUOUS
  0
LAYER
  2
画層147
 70
    0
 62
7
  6
CONTINUOUS
  0
LAYER
  2
画層148
 70
    0
 62
7
  6
CONTINUOUS
  0
LAYER
  2
画層149
 70
    0
 62
7
  6
CONTINUOUS
  0
LAYER
  2
画層150
 70
    0
 62
7
  6
CONTINUOUS
  0
LAYER
  2
画層151
 70
    0
 62
7
  6
CONTINUOUS
  0
LAYER
  2
画層152
 70
    0
 62
7
  6
CONTINUOUS
  0
LAYER
  2
画層153
 70
    0
 62
7
  6
CONTINUOUS
  0
LAYER
  2
画層154
 70
    0
 62
7
  6
CONTINUOUS
  0
LAYER
  2
画層155
 70
    0
 62
7
  6
CONTINUOUS
  0
LAYER
  2
画層156
 70
    0
 62
7
  6
CONTINUOUS
  0
LAYER
  2
画層157
 70
    0
 62
7
  6
CONTINUOUS
  0
LAYER
  2
画層158
 70
    0
 62
7
  6
CONTINUOUS
  0
LAYER
  2
画層159
 70
    0
 62
7
  6
CONTINUOUS
  0
LAYER
  2
画層160
 70
    0
 62
7
  6
CONTINUOUS
  0
LAYER
  2
画層161
 70
    0
 62
7
  6
CONTINUOUS
  0
LAYER
  2
画層162
 70
    0
 62
7
  6
CONTINUOUS
  0
LAYER
  2
画層163
 70
    0
 62
7
  6
CONTINUOUS
  0
LAYER
  2
画層164
 70
    0
 62
7
  6
CONTINUOUS
  0
LAYER
  2
画層165
 70
    0
 62
7
  6
CONTINUOUS
  0
LAYER
  2
画層166
 70
    0
 62
7
  6
CONTINUOUS
  0
LAYER
  2
画層167
 70
    0
 62
7
  6
CONTINUOUS
  0
LAYER
  2
画層168
 70
    0
 62
7
  6
CONTINUOUS
  0
LAYER
  2
画層169
 70
    0
 62
7
  6
CONTINUOUS
  0
LAYER
  2
画層170
 70
    0
 62
7
  6
CONTINUOUS
  0
LAYER
  2
画層171
 70
    0
 62
7
  6
CONTINUOUS
  0
LAYER
  2
画層172
 70
    0
 62
7
  6
CONTINUOUS
  0
LAYER
  2
画層173
 70
    0
 62
7
  6
CONTINUOUS
  0
LAYER
  2
画層174
 70
    0
 62
7
  6
CONTINUOUS
  0
LAYER
  2
画層175
 70
    0
 62
7
  6
CONTINUOUS
  0
LAYER
  2
画層176
 70
    0
 62
7
  6
CONTINUOUS
  0
LAYER
  2
画層177
 70
    0
 62
7
  6
CONTINUOUS
  0
LAYER
  2
画層178
 70
    0
 62
7
  6
CONTINUOUS
  0
LAYER
  2
画層179
 70
    0
 62
7
  6
CONTINUOUS
  0
LAYER
  2
画層180
 70
    0
 62
7
  6
CONTINUOUS
  0
LAYER
  2
画層181
 70
    0
 62
7
  6
CONTINUOUS
  0
LAYER
  2
画層182
 70
    0
 62
7
  6
CONTINUOUS
  0
LAYER
  2
画層183
 70
    0
 62
7
  6
CONTINUOUS
  0
LAYER
  2
画層184
 70
    0
 62
7
  6
CONTINUOUS
  0
LAYER
  2
画層185
 70
    0
 62
7
  6
CONTINUOUS
  0
LAYER
  2
画層186
 70
    0
 62
7
  6
CONTINUOUS
  0
LAYER
  2
画層187
 70
    0
 62
7
  6
CONTINUOUS
  0
LAYER
  2
画層188
 70
    0
 62
7
  6
CONTINUOUS
  0
LAYER
  2
画層189
 70
    0
 62
7
  6
CONTINUOUS
  0
LAYER
  2
画層190
 70
    0
 62
7
  6
CONTINUOUS
  0
LAYER
  2
画層191
 70
    0
 62
7
  6
CONTINUOUS
  0
LAYER
  2
画層192
 70
    0
 62
7
  6
CONTINUOUS
  0
LAYER
  2
画層193
 70
    0
 62
7
  6
CONTINUOUS
  0
LAYER
  2
画層194
 70
    0
 62
7
  6
CONTINUOUS
  0
LAYER
  2
画層195
 70
    0
 62
7
  6
CONTINUOUS
  0
LAYER
  2
画層196
 70
    0
 62
7
  6
CONTINUOUS
  0
LAYER
  2
画層197
 70
    0
 62
7
  6
CONTINUOUS
  0
LAYER
  2
画層198
 70
    0
 62
7
  6
CONTINUOUS
  0
LAYER
  2
画層199
 70
    0
 62
7
  6
CONTINUOUS
  0
LAYER
  2
画層200
 70
    0
 62
7
  6
CONTINUOUS
  0
LAYER
  2
画層201
 70
    0
 62
7
  6
CONTINUOUS
  0
LAYER
  2
画層202
 70
    0
 62
7
  6
CONTINUOUS
  0
LAYER
  2
画層203
 70
    0
 62
7
  6
CONTINUOUS
  0
LAYER
  2
画層204
 70
    0
 62
7
  6
CONTINUOUS
  0
LAYER
  2
画層205
 70
    0
 62
7
  6
CONTINUOUS
  0
LAYER
  2
画層206
 70
    0
 62
7
  6
CONTINUOUS
  0
LAYER
  2
画層207
 70
    0
 62
7
  6
CONTINUOUS
  0
LAYER
  2
画層208
 70
    0
 62
7
  6
CONTINUOUS
  0
LAYER
  2
画層209
 70
    0
 62
7
  6
CONTINUOUS
  0
LAYER
  2
画層210
 70
    0
 62
7
  6
CONTINUOUS
  0
LAYER
  2
画層211
 70
    0
 62
7
  6
CONTINUOUS
  0
LAYER
  2
画層212
 70
    0
 62
7
  6
CONTINUOUS
  0
LAYER
  2
画層213
 70
    0
 62
7
  6
CONTINUOUS
  0
LAYER
  2
画層214
 70
    0
 62
7
  6
CONTINUOUS
  0
LAYER
  2
画層215
 70
    0
 62
7
  6
CONTINUOUS
  0
LAYER
  2
画層216
 70
    0
 62
7
  6
CONTINUOUS
  0
LAYER
  2
画層217
 70
    0
 62
7
  6
CONTINUOUS
  0
LAYER
  2
画層218
 70
    0
 62
7
  6
CONTINUOUS
  0
LAYER
  2
画層219
 70
    0
 62
7
  6
CONTINUOUS
  0
LAYER
  2
画層220
 70
    0
 62
7
  6
CONTINUOUS
  0
LAYER
  2
画層221
 70
    0
 62
7
  6
CONTINUOUS
  0
LAYER
  2
画層222
 70
    0
 62
7
  6
CONTINUOUS
  0
LAYER
  2
画層223
 70
    0
 62
7
  6
CONTINUOUS
  0
LAYER
  2
画層224
 70
    0
 62
7
  6
CONTINUOUS
  0
LAYER
  2
画層225
 70
    0
 62
7
  6
CONTINUOUS
  0
LAYER
  2
画層226
 70
    0
 62
7
  6
CONTINUOUS
  0
LAYER
  2
画層227
 70
    0
 62
7
  6
CONTINUOUS
  0
LAYER
  2
画層228
 70
    0
 62
7
  6
CONTINUOUS
  0
LAYER
  2
画層229
 70
    0
 62
7
  6
CONTINUOUS
  0
LAYER
  2
画層230
 70
    0
 62
7
  6
CONTINUOUS
  0
LAYER
  2
画層231
 70
    0
 62
7
  6
CONTINUOUS
  0
LAYER
  2
画層232
 70
    0
 62
7
  6
CONTINUOUS
  0
LAYER
  2
画層233
 70
    0
 62
7
  6
CONTINUOUS
  0
LAYER
  2
画層234
 70
    0
 62
7
  6
CONTINUOUS
  0
LAYER
  2
画層235
 70
    0
 62
7
  6
CONTINUOUS
  0
LAYER
  2
画層236
 70
    0
 62
7
  6
CONTINUOUS
  0
LAYER
  2
画層237
 70
    0
 62
7
  6
CONTINUOUS
  0
LAYER
  2
画層238
 70
    0
 62
7
  6
CONTINUOUS
  0
LAYER
  2
画層239
 70
    0
 62
7
  6
CONTINUOUS
  0
LAYER
  2
画層240
 70
    0
 62
7
  6
CONTINUOUS
  0
LAYER
  2
画層241
 70
    0
 62
7
  6
CONTINUOUS
  0
LAYER
  2
画層242
 70
    0
 62
7
  6
CONTINUOUS
  0
LAYER
  2
画層243
 70
    0
 62
7
  6
CONTINUOUS
  0
LAYER
  2
画層244
 70
    0
 62
7
  6
CONTINUOUS
  0
LAYER
  2
画層245
 70
    0
 62
7
  6
CONTINUOUS
  0
LAYER
  2
画層246
 70
    0
 62
7
  6
CONTINUOUS
  0
LAYER
  2
画層247
 70
    0
 62
7
  6
CONTINUOUS
  0
LAYER
  2
画層248
 70
    0
 62
7
  6
CONTINUOUS
  0
LAYER
  2
画層249
 70
    0
 62
7
  6
CONTINUOUS
  0
LAYER
  2
画層250
 70
    0
 62
7
  6
CONTINUOUS
  0
LAYER
  2
画層251
 70
    0
 62
7
  6
CONTINUOUS
  0
LAYER
  2
画層252
 70
    0
 62
7
  6
CONTINUOUS
  0
LAYER
  2
画層253
 70
    0
 62
7
  6
CONTINUOUS
  0
LAYER
  2
画層254
 70
    0
 62
7
  6
CONTINUOUS
  0
LAYER
  2
画層255
 70
    0
 62
7
  6
CONTINUOUS
  0
LAYER
  2
0
 70
   64
 62
    7
  6
CONTINUOUS
  0
ENDTAB
  0
TABLE
  2
STYLE
 70
     1
  0
STYLE
  2
Standard
 70
     0
 40
0.0
 41
1.0
 50
0.0
 71
     0
 42
3.2
  3
TXT
  4
BIGFONT
  0
STYLE
  2
Font_0
 70
     0
 40
0.0
 41
1.0
 50
0.0
 71
     0
 42
3.2
  3
txt
  4
BIGFONT
  0
ENDTAB
  0
ENDSEC
  0
SECTION
  2
BLOCKS
  0
BLOCK
  8
1
  2
BLKF103
 70
    0
 10
0
 20
0
 30
0.0
  3
BLKF103
  1

  0
TEXT
  8
1
 62
4
  6
BYLAYER
 62
4
 10
210.844680786133
 20
78.226693749428
 40
3.200000047684
  1
%%c34
  7
Font_0
 50
90
  0
LINE
  8
1
  6
CONTINUOUS
 62
4
 10
211.344684
 20
64.426691
 11
211.344684
 21
98.426691
  0
LINE
  8
1
  6
CONTINUOUS
 62
4
 10
211.344684
 20
64.426691
 11
210.568226
 21
67.324468
  0
LINE
  8
1
  6
CONTINUOUS
 62
4
 10
211.344684
 20
64.426691
 11
212.121141
 21
67.324468
  0
LINE
  8
1
  6
CONTINUOUS
 62
4
 10
211.344684
 20
98.426691
 11
210.568226
 21
95.528913
  0
LINE
  8
1
  6
CONTINUOUS
 62
4
 10
211.344684
 20
98.426691
 11
212.121141
 21
95.528913
  0
LINE
  8
1
  6
CONTINUOUS
 62
4
 10
257.73758
 20
64.426691
 11
210.344684
 21
64.426691
  0
LINE
  8
1
  6
CONTINUOUS
 62
4
 10
257.73758
 20
98.426691
 11
210.344684
 21
98.426691
  0
ENDBLK
  0
BLOCK
  8
1
  2
BLKF102
 70
    0
 10
0
 20
0
 30
0.0
  3
BLKF102
  1

  0
TEXT
  8
1
 62
4
  6
BYLAYER
 62
4
 10
216.844680786133
 20
135.834381723404
 40
3.200000047684
  1
9
  7
Font_0
 50
90
  0
LINE
  8
1
  6
CONTINUOUS
 62
4
 10
217.344684
 20
132.294381
 11
217.344684
 21
141.294381
  0
LINE
  8
1
  6
CONTINUOUS
 62
4
 10
217.344684
 20
132.294381
 11
216.568226
 21
135.192158
  0
LINE
  8
1
  6
CONTINUOUS
 62
4
 10
217.344684
 20
132.294381
 11
218.121141
 21
135.192158
  0
LINE
  8
1
  6
CONTINUOUS
 62
4
 10
217.344684
 20
141.294381
 11
216.568226
 21
138.396603
  0
LINE
  8
1
  6
CONTINUOUS
 62
4
 10
217.344684
 20
141.294381
 11
218.121141
 21
138.396603
  0
LINE
  8
1
  6
CONTINUOUS
 62
4
 10
226.73758
 20
132.294381
 11
216.344684
 21
132.294381
  0
LINE
  8
1
  6
CONTINUOUS
 62
4
 10
226.73758
 20
141.294381
 11
216.344684
 21
141.294381
  0
ENDBLK
  0
BLOCK
  8
1
  2
BLKF101
 70
    0
 10
0
 20
0
 30
0.0
  3
BLKF101
  1

  0
TEXT
  8
1
 62
4
  6
BYLAYER
 62
4
 10
210.844680786133
 20
135.194390892983
 40
3.200000047684
  1
17
  7
Font_0
 50
90
  0
LINE
  8
1
  6
CONTINUOUS
 62
4
 10
211.344684
 20
128.294381
 11
211.344684
 21
145.294381
  0
LINE
  8
1
  6
CONTINUOUS
 62
4
 10
211.344684
 20
128.294381
 11
210.568226
 21
131.192158
  0
LINE
  8
1
  6
CONTINUOUS
 62
4
 10
211.344684
 20
128.294381
 11
212.121141
 21
131.192158
  0
LINE
  8
1
  6
CONTINUOUS
 62
4
 10
211.344684
 20
145.294381
 11
210.568226
 21
142.396603
  0
LINE
  8
1
  6
CONTINUOUS
 62
4
 10
211.344684
 20
145.294381
 11
212.121141
 21
142.396603
  0
LINE
  8
1
  6
CONTINUOUS
 62
4
 10
228.73758
 20
128.294381
 11
210.344684
 21
128.294381
  0
LINE
  8
1
  6
CONTINUOUS
 62
4
 10
228.73758
 20
145.294381
 11
210.344684
 21
145.294381
  0
ENDBLK
  0
BLOCK
  8
1
  2
BLKF100
 70
    0
 10
0
 20
0
 30
0.0
  3
BLKF100
  1

  0
TEXT
  8
1
 62
4
  6
BYLAYER
 62
4
 10
210.844696044922
 20
193.803430199623
 40
3.200000047684
  1
%%c34
  7
Font_0
 50
90
  0
LINE
  8
1
  6
CONTINUOUS
 62
4
 10
211.344684
 20
180.003435
 11
211.344684
 21
214.003435
  0
LINE
  8
1
  6
CONTINUOUS
 62
4
 10
211.344684
 20
180.003435
 11
210.568226
 21
182.901212
  0
LINE
  8
1
  6
CONTINUOUS
 62
4
 10
211.344684
 20
180.003435
 11
212.121141
 21
182.901212
  0
LINE
  8
1
  6
CONTINUOUS
 62
4
 10
211.344684
 20
214.003435
 11
210.568226
 21
211.105657
  0
LINE
  8
1
  6
CONTINUOUS
 62
4
 10
211.344684
 20
214.003435
 11
212.121141
 21
211.105657
  0
LINE
  8
1
  6
CONTINUOUS
 62
4
 10
257.73758
 20
180.003435
 11
210.344684
 21
180.003435
  0
LINE
  8
1
  6
CONTINUOUS
 62
4
 10
257.73758
 20
214.003435
 11
210.344684
 21
214.003435
  0
ENDBLK
  0
BLOCK
  8
1
  2
BLKF099
 70
    0
 10
0
 20
0
 30
0.0
  3
BLKF099
  1

  0
TEXT
  8
1
 62
4
  6
BYLAYER
 62
4
 10
216.844680786133
 20
251.411118173599
 40
3.200000047684
  1
9
  7
Font_0
 50
90
  0
LINE
  8
1
  6
CONTINUOUS
 62
4
 10
217.344684
 20
247.871125
 11
217.344684
 21
256.871125
  0
LINE
  8
1
  6
CONTINUOUS
 62
4
 10
217.344684
 20
247.871125
 11
216.568226
 21
250.768902
  0
LINE
  8
1
  6
CONTINUOUS
 62
4
 10
217.344684
 20
247.871125
 11
218.121141
 21
250.768902
  0
LINE
  8
1
  6
CONTINUOUS
 62
4
 10
217.344684
 20
256.871125
 11
216.568226
 21
253.973347
  0
LINE
  8
1
  6
CONTINUOUS
 62
4
 10
217.344684
 20
256.871125
 11
218.121141
 21
253.973347
  0
LINE
  8
1
  6
CONTINUOUS
 62
4
 10
226.73758
 20
247.871125
 11
216.344684
 21
247.871125
  0
LINE
  8
1
  6
CONTINUOUS
 62
4
 10
226.73758
 20
256.871125
 11
216.344684
 21
256.871125
  0
ENDBLK
  0
BLOCK
  8
1
  2
BLKF098
 70
    0
 10
0
 20
0
 30
0.0
  3
BLKF098
  1

  0
TEXT
  8
1
 62
4
  6
BYLAYER
 62
4
 10
210.844680786133
 20
250.771127343178
 40
3.200000047684
  1
17
  7
Font_0
 50
90
  0
LINE
  8
1
  6
CONTINUOUS
 62
4
 10
211.344684
 20
243.871125
 11
211.344684
 21
260.871125
  0
LINE
  8
1
  6
CONTINUOUS
 62
4
 10
211.344684
 20
243.871125
 11
210.568226
 21
246.768902
  0
LINE
  8
1
  6
CONTINUOUS
 62
4
 10
211.344684
 20
243.871125
 11
212.121141
 21
246.768902
  0
LINE
  8
1
  6
CONTINUOUS
 62
4
 10
211.344684
 20
260.871125
 11
210.568226
 21
257.973347
  0
LINE
  8
1
  6
CONTINUOUS
 62
4
 10
211.344684
 20
260.871125
 11
212.121141
 21
257.973347
  0
LINE
  8
1
  6
CONTINUOUS
 62
4
 10
228.73758
 20
243.871125
 11
210.344684
 21
243.871125
  0
LINE
  8
1
  6
CONTINUOUS
 62
4
 10
228.73758
 20
260.871125
 11
210.344684
 21
260.871125
  0
ENDBLK
  0
BLOCK
  8
1
  2
BLKF097
 70
    0
 10
0
 20
0
 30
0.0
  3
BLKF097
  1

  0
TEXT
  8
1
 62
4
  6
BYLAYER
 62
4
 10
230.277573251724
 20
106.241195678711
 40
3.200000047684
  1
7
  7
Font_0
  0
LINE
  8
1
  6
CONTINUOUS
 62
4
 10
227.73758
 20
105.741199
 11
234.73758
 21
105.741199
  0
LINE
  8
1
  6
CONTINUOUS
 62
4
 10
227.73758
 20
105.741199
 11
230.635358
 21
106.517656
  0
LINE
  8
1
  6
CONTINUOUS
 62
4
 10
227.73758
 20
105.741199
 11
230.635358
 21
104.964742
  0
LINE
  8
1
  6
CONTINUOUS
 62
4
 10
234.73758
 20
105.741199
 11
231.839803
 21
106.517656
  0
LINE
  8
1
  6
CONTINUOUS
 62
4
 10
234.73758
 20
105.741199
 11
231.839803
 21
104.964742
  0
LINE
  8
1
  6
CONTINUOUS
 62
4
 10
234.73758
 20
88.059392
 11
234.73758
 21
106.741199
  0
ENDBLK
  0
BLOCK
  8
1
  2
BLKF096
 70
    0
 10
0
 20
0
 30
0.0
  3
BLKF096
  1

  0
TEXT
  8
1
 62
4
  6
BYLAYER
 62
4
 10
290.537591576576
 20
112.241195678711
 40
3.200000047684
  1
132
  7
Font_0
  0
LINE
  8
1
  6
CONTINUOUS
 62
4
 10
227.73758
 20
111.741199
 11
359.73758
 21
111.741199
  0
LINE
  8
1
  6
CONTINUOUS
 62
4
 10
227.73758
 20
111.741199
 11
230.635358
 21
112.517656
  0
LINE
  8
1
  6
CONTINUOUS
 62
4
 10
227.73758
 20
111.741199
 11
230.635358
 21
110.964742
  0
LINE
  8
1
  6
CONTINUOUS
 62
4
 10
359.73758
 20
111.741199
 11
356.839803
 21
112.517656
  0
LINE
  8
1
  6
CONTINUOUS
 62
4
 10
359.73758
 20
111.741199
 11
356.839803
 21
110.964742
  0
LINE
  8
1
  6
CONTINUOUS
 62
4
 10
227.73758
 20
88.586217
 11
227.73758
 21
112.741199
  0
LINE
  8
1
  6
CONTINUOUS
 62
4
 10
359.73758
 20
92.926691
 11
359.73758
 21
112.741199
  0
ENDBLK
  0
BLOCK
  8
1
  2
BLKF095
 70
    0
 10
0
 20
0
 30
0.0
  3
BLKF095
  1

  0
TEXT
  8
1
 62
4
  6
BYLAYER
 62
4
 10
292.637567162514
 20
161.253189086914
 40
3.200000047684
  1
71
  7
Font_0
  0
LINE
  8
1
  6
CONTINUOUS
 62
4
 10
258.73758
 20
160.75319
 11
329.73758
 21
160.75319
  0
LINE
  8
1
  6
CONTINUOUS
 62
4
 10
258.73758
 20
160.75319
 11
261.635358
 21
161.529647
  0
LINE
  8
1
  6
CONTINUOUS
 62
4
 10
258.73758
 20
160.75319
 11
261.635358
 21
159.976732
  0
LINE
  8
1
  6
CONTINUOUS
 62
4
 10
329.73758
 20
160.75319
 11
326.839803
 21
161.529647
  0
LINE
  8
1
  6
CONTINUOUS
 62
4
 10
329.73758
 20
160.75319
 11
326.839803
 21
159.976732
  0
LINE
  8
1
  6
CONTINUOUS
 62
4
 10
258.73758
 20
154.794381
 11
258.73758
 21
161.75319
  0
ENDBLK
  0
BLOCK
  8
1
  2
BLKF094
 70
    0
 10
0
 20
0
 30
0.0
  3
BLKF094
  1

  0
TEXT
  8
1
 62
4
  6
BYLAYER
 62
4
 10
230.277573251724
 20
161.253189086914
 40
3.200000047684
  1
7
  7
Font_0
  0
LINE
  8
1
  6
CONTINUOUS
 62
4
 10
227.73758
 20
160.75319
 11
234.73758
 21
160.75319
  0
LINE
  8
1
  6
CONTINUOUS
 62
4
 10
227.73758
 20
160.75319
 11
230.635358
 21
161.529647
  0
LINE
  8
1
  6
CONTINUOUS
 62
4
 10
227.73758
 20
160.75319
 11
230.635358
 21
159.976732
  0
LINE
  8
1
  6
CONTINUOUS
 62
4
 10
234.73758
 20
160.75319
 11
231.839803
 21
161.529647
  0
LINE
  8
1
  6
CONTINUOUS
 62
4
 10
234.73758
 20
160.75319
 11
231.839803
 21
159.976732
  0
LINE
  8
1
  6
CONTINUOUS
 62
4
 10
234.73758
 20
148.779523
 11
234.73758
 21
161.75319
  0
ENDBLK
  0
BLOCK
  8
1
  2
BLKF093
 70
    0
 10
0
 20
0
 30
0.0
  3
BLKF093
  1

  0
TEXT
  8
1
 62
4
  6
BYLAYER
 62
4
 10
275.537591576576
 20
167.253189086914
 40
3.200000047684
  1
102
  7
Font_0
  0
LINE
  8
1
  6
CONTINUOUS
 62
4
 10
227.73758
 20
166.75319
 11
329.73758
 21
166.75319
  0
LINE
  8
1
  6
CONTINUOUS
 62
4
 10
227.73758
 20
166.75319
 11
230.635358
 21
167.529647
  0
LINE
  8
1
  6
CONTINUOUS
 62
4
 10
227.73758
 20
166.75319
 11
230.635358
 21
165.976732
  0
LINE
  8
1
  6
CONTINUOUS
 62
4
 10
329.73758
 20
166.75319
 11
326.839803
 21
167.529647
  0
LINE
  8
1
  6
CONTINUOUS
 62
4
 10
329.73758
 20
166.75319
 11
326.839803
 21
165.976732
  0
LINE
  8
1
  6
CONTINUOUS
 62
4
 10
227.73758
 20
144.294381
 11
227.73758
 21
167.75319
  0
LINE
  8
1
  6
CONTINUOUS
 62
4
 10
329.73758
 20
154.794381
 11
329.73758
 21
167.75319
  0
ENDBLK
  0
BLOCK
  8
1
  2
BLKF092
 70
    0
 10
0
 20
0
 30
0.0
  3
BLKF092
  1

  0
TEXT
  8
1
 62
4
  6
BYLAYER
 62
4
 10
343.137567162514
 20
167.253173828125
 40
3.200000047684
  1
30
  7
Font_0
  0
LINE
  8
1
  6
CONTINUOUS
 62
4
 10
329.73758
 20
166.75319
 11
359.73758
 21
166.75319
  0
LINE
  8
1
  6
CONTINUOUS
 62
4
 10
329.73758
 20
166.75319
 11
332.635358
 21
167.529647
  0
LINE
  8
1
  6
CONTINUOUS
 62
4
 10
329.73758
 20
166.75319
 11
332.635358
 21
165.976732
  0
LINE
  8
1
  6
CONTINUOUS
 62
4
 10
359.73758
 20
166.75319
 11
356.839803
 21
167.529647
  0
LINE
  8
1
  6
CONTINUOUS
 62
4
 10
359.73758
 20
166.75319
 11
356.839803
 21
165.976732
  0
LINE
  8
1
  6
CONTINUOUS
 62
4
 10
359.73758
 20
144.794381
 11
359.73758
 21
167.75319
  0
ENDBLK
  0
BLOCK
  8
1
  2
BLKF091
 70
    0
 10
0
 20
0
 30
0.0
  3
BLKF091
  1

  0
LINE
  8
1
  6
CONTINUOUS
 62
4
 10
275.73758
 20
130.544381
 11
281.73758
 21
124.544381
  0
LINE
  8
1
  6
CONTINUOUS
 62
4
 10
277.151794
 20
130.544381
 11
281.73758
 21
125.958594
  0
LINE
  8
1
  6
CONTINUOUS
 62
4
 10
278.566007
 20
130.544381
 11
281.73758
 21
127.372808
  0
LINE
  8
1
  6
CONTINUOUS
 62
4
 10
279.980221
 20
130.544381
 11
281.73758
 21
128.787021
  0
LINE
  8
1
  6
CONTINUOUS
 62
4
 10
281.394434
 20
130.544381
 11
281.73758
 21
130.201235
  0
LINE
  8
1
  6
CONTINUOUS
 62
4
 10
275.73758
 20
129.130167
 11
281.73758
 21
123.130167
  0
LINE
  8
1
  6
CONTINUOUS
 62
4
 10
275.73758
 20
127.715953
 11
281.73758
 21
121.715953
  0
LINE
  8
1
  6
CONTINUOUS
 62
4
 10
275.73758
 20
126.30174
 11
281.73758
 21
120.30174
  0
LINE
  8
1
  6
CONTINUOUS
 62
4
 10
275.73758
 20
124.887526
 11
280.830726
 21
119.794381
  0
LINE
  8
1
  6
CONTINUOUS
 62
4
 10
275.73758
 20
123.473313
 11
279.416512
 21
119.794381
  0
LINE
  8
1
  6
CONTINUOUS
 62
4
 10
275.73758
 20
122.059099
 11
278.002299
 21
119.794381
  0
LINE
  8
1
  6
CONTINUOUS
 62
4
 10
275.73758
 20
120.644886
 11
276.588085
 21
119.794381
  0
ENDBLK
  0
BLOCK
  8
1
  2
BLKF090
 70
    0
 10
0
 20
0
 30
0.0
  3
BLKF090
  1

  0
LINE
  8
1
  6
CONTINUOUS
 62
4
 10
275.73758
 20
129.130167
 11
277.151794
 21
130.544381
  0
LINE
  8
1
  6
CONTINUOUS
 62
4
 10
275.73758
 20
127.715953
 11
278.566007
 21
130.544381
  0
LINE
  8
1
  6
CONTINUOUS
 62
4
 10
275.73758
 20
126.30174
 11
279.980221
 21
130.544381
  0
LINE
  8
1
  6
CONTINUOUS
 62
4
 10
275.73758
 20
124.887526
 11
281.394434
 21
130.544381
  0
LINE
  8
1
  6
CONTINUOUS
 62
4
 10
275.73758
 20
123.473313
 11
281.73758
 21
129.473313
  0
LINE
  8
1
  6
CONTINUOUS
 62
4
 10
275.73758
 20
122.059099
 11
281.73758
 21
128.059099
  0
LINE
  8
1
  6
CONTINUOUS
 62
4
 10
275.73758
 20
120.644886
 11
281.73758
 21
126.644886
  0
LINE
  8
1
  6
CONTINUOUS
 62
4
 10
276.301289
 20
119.794381
 11
281.73758
 21
125.230672
  0
LINE
  8
1
  6
CONTINUOUS
 62
4
 10
277.715502
 20
119.794381
 11
281.73758
 21
123.816458
  0
LINE
  8
1
  6
CONTINUOUS
 62
4
 10
279.129716
 20
119.794381
 11
281.73758
 21
122.402245
  0
LINE
  8
1
  6
CONTINUOUS
 62
4
 10
280.543929
 20
119.794381
 11
281.73758
 21
120.988031
  0
ENDBLK
  0
BLOCK
  8
1
  2
BLKF089
 70
    0
 10
0
 20
0
 30
0.0
  3
BLKF089
  1

  0
LINE
  8
1
  6
CONTINUOUS
 62
4
 10
293.73758
 20
130.544381
 11
299.73758
 21
124.544381
  0
LINE
  8
1
  6
CONTINUOUS
 62
4
 10
295.151794
 20
130.544381
 11
299.73758
 21
125.958594
  0
LINE
  8
1
  6
CONTINUOUS
 62
4
 10
296.566007
 20
130.544381
 11
299.73758
 21
127.372808
  0
LINE
  8
1
  6
CONTINUOUS
 62
4
 10
297.980221
 20
130.544381
 11
299.73758
 21
128.787021
  0
LINE
  8
1
  6
CONTINUOUS
 62
4
 10
299.394434
 20
130.544381
 11
299.73758
 21
130.201235
  0
LINE
  8
1
  6
CONTINUOUS
 62
4
 10
293.73758
 20
129.130167
 11
299.73758
 21
123.130167
  0
LINE
  8
1
  6
CONTINUOUS
 62
4
 10
293.73758
 20
127.715953
 11
299.73758
 21
121.715953
  0
LINE
  8
1
  6
CONTINUOUS
 62
4
 10
293.73758
 20
126.30174
 11
299.73758
 21
120.30174
  0
LINE
  8
1
  6
CONTINUOUS
 62
4
 10
293.73758
 20
124.887526
 11
298.830726
 21
119.794381
  0
LINE
  8
1
  6
CONTINUOUS
 62
4
 10
293.73758
 20
123.473313
 11
297.416512
 21
119.794381
  0
LINE
  8
1
  6
CONTINUOUS
 62
4
 10
293.73758
 20
122.059099
 11
296.002299
 21
119.794381
  0
LINE
  8
1
  6
CONTINUOUS
 62
4
 10
293.73758
 20
120.644886
 11
294.588085
 21
119.794381
  0
ENDBLK
  0
BLOCK
  8
1
  2
BLKF088
 70
    0
 10
0
 20
0
 30
0.0
  3
BLKF088
  1

  0
LINE
  8
1
  6
CONTINUOUS
 62
4
 10
293.73758
 20
129.130167
 11
295.151794
 21
130.544381
  0
LINE
  8
1
  6
CONTINUOUS
 62
4
 10
293.73758
 20
127.715953
 11
296.566007
 21
130.544381
  0
LINE
  8
1
  6
CONTINUOUS
 62
4
 10
293.73758
 20
126.30174
 11
297.980221
 21
130.544381
  0
LINE
  8
1
  6
CONTINUOUS
 62
4
 10
293.73758
 20
124.887526
 11
299.394434
 21
130.544381
  0
LINE
  8
1
  6
CONTINUOUS
 62
4
 10
293.73758
 20
123.473313
 11
299.73758
 21
129.473313
  0
LINE
  8
1
  6
CONTINUOUS
 62
4
 10
293.73758
 20
122.059099
 11
299.73758
 21
128.059099
  0
LINE
  8
1
  6
CONTINUOUS
 62
4
 10
293.73758
 20
120.644886
 11
299.73758
 21
126.644886
  0
LINE
  8
1
  6
CONTINUOUS
 62
4
 10
294.301289
 20
119.794381
 11
299.73758
 21
125.230672
  0
LINE
  8
1
  6
CONTINUOUS
 62
4
 10
295.715502
 20
119.794381
 11
299.73758
 21
123.816458
  0
LINE
  8
1
  6
CONTINUOUS
 62
4
 10
297.129716
 20
119.794381
 11
299.73758
 21
122.402245
  0
LINE
  8
1
  6
CONTINUOUS
 62
4
 10
298.543929
 20
119.794381
 11
299.73758
 21
120.988031
  0
ENDBLK
  0
BLOCK
  8
1
  2
BLKF087
 70
    0
 10
0
 20
0
 30
0.0
  3
BLKF087
  1

  0
LINE
  8
1
  6
CONTINUOUS
 62
4
 10
311.73758
 20
130.544381
 11
317.73758
 21
124.544381
  0
LINE
  8
1
  6
CONTINUOUS
 62
4
 10
313.151794
 20
130.544381
 11
317.73758
 21
125.958594
  0
LINE
  8
1
  6
CONTINUOUS
 62
4
 10
314.566007
 20
130.544381
 11
317.73758
 21
127.372808
  0
LINE
  8
1
  6
CONTINUOUS
 62
4
 10
315.980221
 20
130.544381
 11
317.73758
 21
128.787021
  0
LINE
  8
1
  6
CONTINUOUS
 62
4
 10
317.394434
 20
130.544381
 11
317.73758
 21
130.201235
  0
LINE
  8
1
  6
CONTINUOUS
 62
4
 10
311.73758
 20
129.130167
 11
317.73758
 21
123.130167
  0
LINE
  8
1
  6
CONTINUOUS
 62
4
 10
311.73758
 20
127.715953
 11
317.73758
 21
121.715953
  0
LINE
  8
1
  6
CONTINUOUS
 62
4
 10
311.73758
 20
126.30174
 11
317.73758
 21
120.30174
  0
LINE
  8
1
  6
CONTINUOUS
 62
4
 10
311.73758
 20
124.887526
 11
316.830726
 21
119.794381
  0
LINE
  8
1
  6
CONTINUOUS
 62
4
 10
311.73758
 20
123.473313
 11
315.416512
 21
119.794381
  0
LINE
  8
1
  6
CONTINUOUS
 62
4
 10
311.73758
 20
122.059099
 11
314.002299
 21
119.794381
  0
LINE
  8
1
  6
CONTINUOUS
 62
4
 10
311.73758
 20
120.644886
 11
312.588085
 21
119.794381
  0
ENDBLK
  0
BLOCK
  8
1
  2
BLKF086
 70
    0
 10
0
 20
0
 30
0.0
  3
BLKF086
  1

  0
LINE
  8
1
  6
CONTINUOUS
 62
4
 10
311.73758
 20
129.130167
 11
313.151794
 21
130.544381
  0
LINE
  8
1
  6
CONTINUOUS
 62
4
 10
311.73758
 20
127.715953
 11
314.566007
 21
130.544381
  0
LINE
  8
1
  6
CONTINUOUS
 62
4
 10
311.73758
 20
126.30174
 11
315.980221
 21
130.544381
  0
LINE
  8
1
  6
CONTINUOUS
 62
4
 10
311.73758
 20
124.887526
 11
317.394434
 21
130.544381
  0
LINE
  8
1
  6
CONTINUOUS
 62
4
 10
311.73758
 20
123.473313
 11
317.73758
 21
129.473313
  0
LINE
  8
1
  6
CONTINUOUS
 62
4
 10
311.73758
 20
122.059099
 11
317.73758
 21
128.059099
  0
LINE
  8
1
  6
CONTINUOUS
 62
4
 10
311.73758
 20
120.644886
 11
317.73758
 21
126.644886
  0
LINE
  8
1
  6
CONTINUOUS
 62
4
 10
312.301289
 20
119.794381
 11
317.73758
 21
125.230672
  0
LINE
  8
1
  6
CONTINUOUS
 62
4
 10
313.715502
 20
119.794381
 11
317.73758
 21
123.816458
  0
LINE
  8
1
  6
CONTINUOUS
 62
4
 10
315.129716
 20
119.794381
 11
317.73758
 21
122.402245
  0
LINE
  8
1
  6
CONTINUOUS
 62
4
 10
316.543929
 20
119.794381
 11
317.73758
 21
120.988031
  0
ENDBLK
  0
BLOCK
  8
1
  2
BLKF085
 70
    0
 10
0
 20
0
 30
0.0
  3
BLKF085
  1

  0
LINE
  8
1
  6
CONTINUOUS
 62
4
 10
275.73758
 20
153.794381
 11
281.73758
 21
147.794381
  0
LINE
  8
1
  6
CONTINUOUS
 62
4
 10
277.151794
 20
153.794381
 11
281.73758
 21
149.208594
  0
LINE
  8
1
  6
CONTINUOUS
 62
4
 10
278.566007
 20
153.794381
 11
281.73758
 21
150.622808
  0
LINE
  8
1
  6
CONTINUOUS
 62
4
 10
279.980221
 20
153.794381
 11
281.73758
 21
152.037021
  0
LINE
  8
1
  6
CONTINUOUS
 62
4
 10
281.394434
 20
153.794381
 11
281.73758
 21
153.451235
  0
LINE
  8
1
  6
CONTINUOUS
 62
4
 10
275.73758
 20
152.380167
 11
281.73758
 21
146.380167
  0
LINE
  8
1
  6
CONTINUOUS
 62
4
 10
275.73758
 20
150.965953
 11
281.73758
 21
144.965953
  0
LINE
  8
1
  6
CONTINUOUS
 62
4
 10
275.73758
 20
149.55174
 11
281.73758
 21
143.55174
  0
LINE
  8
1
  6
CONTINUOUS
 62
4
 10
275.73758
 20
148.137526
 11
280.830726
 21
143.044381
  0
LINE
  8
1
  6
CONTINUOUS
 62
4
 10
275.73758
 20
146.723313
 11
279.416512
 21
143.044381
  0
LINE
  8
1
  6
CONTINUOUS
 62
4
 10
275.73758
 20
145.309099
 11
278.002299
 21
143.044381
  0
LINE
  8
1
  6
CONTINUOUS
 62
4
 10
275.73758
 20
143.894886
 11
276.588085
 21
143.044381
  0
ENDBLK
  0
BLOCK
  8
1
  2
BLKF084
 70
    0
 10
0
 20
0
 30
0.0
  3
BLKF084
  1

  0
LINE
  8
1
  6
CONTINUOUS
 62
4
 10
275.73758
 20
152.380167
 11
277.151794
 21
153.794381
  0
LINE
  8
1
  6
CONTINUOUS
 62
4
 10
275.73758
 20
150.965953
 11
278.566007
 21
153.794381
  0
LINE
  8
1
  6
CONTINUOUS
 62
4
 10
275.73758
 20
149.55174
 11
279.980221
 21
153.794381
  0
LINE
  8
1
  6
CONTINUOUS
 62
4
 10
275.73758
 20
148.137526
 11
281.394434
 21
153.794381
  0
LINE
  8
1
  6
CONTINUOUS
 62
4
 10
275.73758
 20
146.723313
 11
281.73758
 21
152.723313
  0
LINE
  8
1
  6
CONTINUOUS
 62
4
 10
275.73758
 20
145.309099
 11
281.73758
 21
151.309099
  0
LINE
  8
1
  6
CONTINUOUS
 62
4
 10
275.73758
 20
143.894886
 11
281.73758
 21
149.894886
  0
LINE
  8
1
  6
CONTINUOUS
 62
4
 10
276.301289
 20
143.044381
 11
281.73758
 21
148.480672
  0
LINE
  8
1
  6
CONTINUOUS
 62
4
 10
277.715502
 20
143.044381
 11
281.73758
 21
147.066458
  0
LINE
  8
1
  6
CONTINUOUS
 62
4
 10
279.129716
 20
143.044381
 11
281.73758
 21
145.652245
  0
LINE
  8
1
  6
CONTINUOUS
 62
4
 10
280.543929
 20
143.044381
 11
281.73758
 21
144.238031
  0
ENDBLK
  0
BLOCK
  8
1
  2
BLKF083
 70
    0
 10
0
 20
0
 30
0.0
  3
BLKF083
  1

  0
LINE
  8
1
  6
CONTINUOUS
 62
4
 10
293.73758
 20
153.794381
 11
299.73758
 21
147.794381
  0
LINE
  8
1
  6
CONTINUOUS
 62
4
 10
295.151794
 20
153.794381
 11
299.73758
 21
149.208594
  0
LINE
  8
1
  6
CONTINUOUS
 62
4
 10
296.566007
 20
153.794381
 11
299.73758
 21
150.622808
  0
LINE
  8
1
  6
CONTINUOUS
 62
4
 10
297.980221
 20
153.794381
 11
299.73758
 21
152.037021
  0
LINE
  8
1
  6
CONTINUOUS
 62
4
 10
299.394434
 20
153.794381
 11
299.73758
 21
153.451235
  0
LINE
  8
1
  6
CONTINUOUS
 62
4
 10
293.73758
 20
152.380167
 11
299.73758
 21
146.380167
  0
LINE
  8
1
  6
CONTINUOUS
 62
4
 10
293.73758
 20
150.965953
 11
299.73758
 21
144.965953
  0
LINE
  8
1
  6
CONTINUOUS
 62
4
 10
293.73758
 20
149.55174
 11
299.73758
 21
143.55174
  0
LINE
  8
1
  6
CONTINUOUS
 62
4
 10
293.73758
 20
148.137526
 11
298.830726
 21
143.044381
  0
LINE
  8
1
  6
CONTINUOUS
 62
4
 10
293.73758
 20
146.723313
 11
297.416512
 21
143.044381
  0
LINE
  8
1
  6
CONTINUOUS
 62
4
 10
293.73758
 20
145.309099
 11
296.002299
 21
143.044381
  0
LINE
  8
1
  6
CONTINUOUS
 62
4
 10
293.73758
 20
143.894886
 11
294.588085
 21
143.044381
  0
ENDBLK
  0
BLOCK
  8
1
  2
BLKF082
 70
    0
 10
0
 20
0
 30
0.0
  3
BLKF082
  1

  0
LINE
  8
1
  6
CONTINUOUS
 62
4
 10
293.73758
 20
152.380167
 11
295.151794
 21
153.794381
  0
LINE
  8
1
  6
CONTINUOUS
 62
4
 10
293.73758
 20
150.965953
 11
296.566007
 21
153.794381
  0
LINE
  8
1
  6
CONTINUOUS
 62
4
 10
293.73758
 20
149.55174
 11
297.980221
 21
153.794381
  0
LINE
  8
1
  6
CONTINUOUS
 62
4
 10
293.73758
 20
148.137526
 11
299.394434
 21
153.794381
  0
LINE
  8
1
  6
CONTINUOUS
 62
4
 10
293.73758
 20
146.723313
 11
299.73758
 21
152.723313
  0
LINE
  8
1
  6
CONTINUOUS
 62
4
 10
293.73758
 20
145.309099
 11
299.73758
 21
151.309099
  0
LINE
  8
1
  6
CONTINUOUS
 62
4
 10
293.73758
 20
143.894886
 11
299.73758
 21
149.894886
  0
LINE
  8
1
  6
CONTINUOUS
 62
4
 10
294.301289
 20
143.044381
 11
299.73758
 21
148.480672
  0
LINE
  8
1
  6
CONTINUOUS
 62
4
 10
295.715502
 20
143.044381
 11
299.73758
 21
147.066458
  0
LINE
  8
1
  6
CONTINUOUS
 62
4
 10
297.129716
 20
143.044381
 11
299.73758
 21
145.652245
  0
LINE
  8
1
  6
CONTINUOUS
 62
4
 10
298.543929
 20
143.044381
 11
299.73758
 21
144.238031
  0
ENDBLK
  0
BLOCK
  8
1
  2
BLKF081
 70
    0
 10
0
 20
0
 30
0.0
  3
BLKF081
  1

  0
LINE
  8
1
  6
CONTINUOUS
 62
4
 10
311.73758
 20
153.794381
 11
317.73758
 21
147.794381
  0
LINE
  8
1
  6
CONTINUOUS
 62
4
 10
313.151794
 20
153.794381
 11
317.73758
 21
149.208594
  0
LINE
  8
1
  6
CONTINUOUS
 62
4
 10
314.566007
 20
153.794381
 11
317.73758
 21
150.622808
  0
LINE
  8
1
  6
CONTINUOUS
 62
4
 10
315.980221
 20
153.794381
 11
317.73758
 21
152.037021
  0
LINE
  8
1
  6
CONTINUOUS
 62
4
 10
317.394434
 20
153.794381
 11
317.73758
 21
153.451235
  0
LINE
  8
1
  6
CONTINUOUS
 62
4
 10
311.73758
 20
152.380167
 11
317.73758
 21
146.380167
  0
LINE
  8
1
  6
CONTINUOUS
 62
4
 10
311.73758
 20
150.965953
 11
317.73758
 21
144.965953
  0
LINE
  8
1
  6
CONTINUOUS
 62
4
 10
311.73758
 20
149.55174
 11
317.73758
 21
143.55174
  0
LINE
  8
1
  6
CONTINUOUS
 62
4
 10
311.73758
 20
148.137526
 11
316.830726
 21
143.044381
  0
LINE
  8
1
  6
CONTINUOUS
 62
4
 10
311.73758
 20
146.723313
 11
315.416512
 21
143.044381
  0
LINE
  8
1
  6
CONTINUOUS
 62
4
 10
311.73758
 20
145.309099
 11
314.002299
 21
143.044381
  0
LINE
  8
1
  6
CONTINUOUS
 62
4
 10
311.73758
 20
143.894886
 11
312.588085
 21
143.044381
  0
ENDBLK
  0
BLOCK
  8
1
  2
BLKF080
 70
    0
 10
0
 20
0
 30
0.0
  3
BLKF080
  1

  0
LINE
  8
1
  6
CONTINUOUS
 62
4
 10
311.73758
 20
152.380167
 11
313.151794
 21
153.794381
  0
LINE
  8
1
  6
CONTINUOUS
 62
4
 10
311.73758
 20
150.965953
 11
314.566007
 21
153.794381
  0
LINE
  8
1
  6
CONTINUOUS
 62
4
 10
311.73758
 20
149.55174
 11
315.980221
 21
153.794381
  0
LINE
  8
1
  6
CONTINUOUS
 62
4
 10
311.73758
 20
148.137526
 11
317.394434
 21
153.794381
  0
LINE
  8
1
  6
CONTINUOUS
 62
4
 10
311.73758
 20
146.723313
 11
317.73758
 21
152.723313
  0
LINE
  8
1
  6
CONTINUOUS
 62
4
 10
311.73758
 20
145.309099
 11
317.73758
 21
151.309099
  0
LINE
  8
1
  6
CONTINUOUS
 62
4
 10
311.73758
 20
143.894886
 11
317.73758
 21
149.894886
  0
LINE
  8
1
  6
CONTINUOUS
 62
4
 10
312.301289
 20
143.044381
 11
317.73758
 21
148.480672
  0
LINE
  8
1
  6
CONTINUOUS
 62
4
 10
313.715502
 20
143.044381
 11
317.73758
 21
147.066458
  0
LINE
  8
1
  6
CONTINUOUS
 62
4
 10
315.129716
 20
143.044381
 11
317.73758
 21
145.652245
  0
LINE
  8
1
  6
CONTINUOUS
 62
4
 10
316.543929
 20
143.044381
 11
317.73758
 21
144.238031
  0
ENDBLK
  0
BLOCK
  8
1
  2
BLKF079
 70
    0
 10
0
 20
0
 30
0.0
  3
BLKF079
  1

  0
LINE
  8
1
  6
CONTINUOUS
 62
4
 10
275.73758
 20
98.426691
 11
281.73758
 21
92.426691
  0
LINE
  8
1
  6
CONTINUOUS
 62
4
 10
277.151794
 20
98.426691
 11
281.73758
 21
93.840904
  0
LINE
  8
1
  6
CONTINUOUS
 62
4
 10
278.566007
 20
98.426691
 11
281.73758
 21
95.255118
  0
LINE
  8
1
  6
CONTINUOUS
 62
4
 10
279.980221
 20
98.426691
 11
281.73758
 21
96.669331
  0
LINE
  8
1
  6
CONTINUOUS
 62
4
 10
281.394434
 20
98.426691
 11
281.73758
 21
98.083545
  0
LINE
  8
1
  6
CONTINUOUS
 62
4
 10
275.73758
 20
97.012477
 11
281.73758
 21
91.012477
  0
LINE
  8
1
  6
CONTINUOUS
 62
4
 10
275.73758
 20
95.598264
 11
281.73758
 21
89.598264
  0
LINE
  8
1
  6
CONTINUOUS
 62
4
 10
275.73758
 20
94.18405
 11
281.73758
 21
88.18405
  0
LINE
  8
1
  6
CONTINUOUS
 62
4
 10
275.73758
 20
92.769836
 11
281.73758
 21
86.769836
  0
LINE
  8
1
  6
CONTINUOUS
 62
4
 10
275.73758
 20
91.355623
 11
281.73758
 21
85.355623
  0
LINE
  8
1
  6
CONTINUOUS
 62
4
 10
275.73758
 20
89.941409
 11
281.73758
 21
83.941409
  0
LINE
  8
1
  6
CONTINUOUS
 62
4
 10
275.73758
 20
88.527196
 11
281.73758
 21
82.527196
  0
LINE
  8
1
  6
CONTINUOUS
 62
4
 10
275.73758
 20
87.112982
 11
281.73758
 21
81.112982
  0
LINE
  8
1
  6
CONTINUOUS
 62
4
 10
275.73758
 20
85.698769
 11
281.73758
 21
79.698769
  0
LINE
  8
1
  6
CONTINUOUS
 62
4
 10
275.73758
 20
84.284555
 11
281.73758
 21
78.284555
  0
LINE
  8
1
  6
CONTINUOUS
 62
4
 10
275.73758
 20
82.870341
 11
281.73758
 21
76.870341
  0
LINE
  8
1
  6
CONTINUOUS
 62
4
 10
275.73758
 20
81.456128
 11
281.73758
 21
75.456128
  0
LINE
  8
1
  6
CONTINUOUS
 62
4
 10
275.73758
 20
80.041914
 11
281.73758
 21
74.041914
  0
LINE
  8
1
  6
CONTINUOUS
 62
4
 10
275.73758
 20
78.627701
 11
281.73758
 21
72.627701
  0
LINE
  8
1
  6
CONTINUOUS
 62
4
 10
275.73758
 20
77.213487
 11
281.73758
 21
71.213487
  0
LINE
  8
1
  6
CONTINUOUS
 62
4
 10
275.73758
 20
75.799274
 11
281.73758
 21
69.799274
  0
LINE
  8
1
  6
CONTINUOUS
 62
4
 10
275.73758
 20
74.38506
 11
281.73758
 21
68.38506
  0
LINE
  8
1
  6
CONTINUOUS
 62
4
 10
275.73758
 20
72.970847
 11
281.73758
 21
66.970847
  0
LINE
  8
1
  6
CONTINUOUS
 62
4
 10
275.73758
 20
71.556633
 11
281.73758
 21
65.556633
  0
LINE
  8
1
  6
CONTINUOUS
 62
4
 10
275.73758
 20
70.142419
 11
281.453309
 21
64.426691
  0
LINE
  8
1
  6
CONTINUOUS
 62
4
 10
275.73758
 20
68.728206
 11
280.039095
 21
64.426691
  0
LINE
  8
1
  6
CONTINUOUS
 62
4
 10
275.73758
 20
67.313992
 11
278.624882
 21
64.426691
  0
LINE
  8
1
  6
CONTINUOUS
 62
4
 10
275.73758
 20
65.899779
 11
277.210668
 21
64.426691
  0
LINE
  8
1
  6
CONTINUOUS
 62
4
 10
275.73758
 20
64.485565
 11
275.796455
 21
64.426691
  0
ENDBLK
  0
BLOCK
  8
1
  2
BLKF078
 70
    0
 10
0
 20
0
 30
0.0
  3
BLKF078
  1

  0
LINE
  8
1
  6
CONTINUOUS
 62
4
 10
275.73758
 20
97.012477
 11
277.151794
 21
98.426691
  0
LINE
  8
1
  6
CONTINUOUS
 62
4
 10
275.73758
 20
95.598264
 11
278.566007
 21
98.426691
  0
LINE
  8
1
  6
CONTINUOUS
 62
4
 10
275.73758
 20
94.18405
 11
279.980221
 21
98.426691
  0
LINE
  8
1
  6
CONTINUOUS
 62
4
 10
275.73758
 20
92.769836
 11
281.394434
 21
98.426691
  0
LINE
  8
1
  6
CONTINUOUS
 62
4
 10
275.73758
 20
91.355623
 11
281.73758
 21
97.355623
  0
LINE
  8
1
  6
CONTINUOUS
 62
4
 10
275.73758
 20
89.941409
 11
281.73758
 21
95.941409
  0
LINE
  8
1
  6
CONTINUOUS
 62
4
 10
275.73758
 20
88.527196
 11
281.73758
 21
94.527196
  0
LINE
  8
1
  6
CONTINUOUS
 62
4
 10
275.73758
 20
87.112982
 11
281.73758
 21
93.112982
  0
LINE
  8
1
  6
CONTINUOUS
 62
4
 10
275.73758
 20
85.698769
 11
281.73758
 21
91.698769
  0
LINE
  8
1
  6
CONTINUOUS
 62
4
 10
275.73758
 20
84.284555
 11
281.73758
 21
90.284555
  0
LINE
  8
1
  6
CONTINUOUS
 62
4
 10
275.73758
 20
82.870341
 11
281.73758
 21
88.870341
  0
LINE
  8
1
  6
CONTINUOUS
 62
4
 10
275.73758
 20
81.456128
 11
281.73758
 21
87.456128
  0
LINE
  8
1
  6
CONTINUOUS
 62
4
 10
275.73758
 20
80.041914
 11
281.73758
 21
86.041914
  0
LINE
  8
1
  6
CONTINUOUS
 62
4
 10
275.73758
 20
78.627701
 11
281.73758
 21
84.627701
  0
LINE
  8
1
  6
CONTINUOUS
 62
4
 10
275.73758
 20
77.213487
 11
281.73758
 21
83.213487
  0
LINE
  8
1
  6
CONTINUOUS
 62
4
 10
275.73758
 20
75.799274
 11
281.73758
 21
81.799274
  0
LINE
  8
1
  6
CONTINUOUS
 62
4
 10
275.73758
 20
74.38506
 11
281.73758
 21
80.38506
  0
LINE
  8
1
  6
CONTINUOUS
 62
4
 10
275.73758
 20
72.970847
 11
281.73758
 21
78.970847
  0
LINE
  8
1
  6
CONTINUOUS
 62
4
 10
275.73758
 20
71.556633
 11
281.73758
 21
77.556633
  0
LINE
  8
1
  6
CONTINUOUS
 62
4
 10
275.73758
 20
70.142419
 11
281.73758
 21
76.142419
  0
LINE
  8
1
  6
CONTINUOUS
 62
4
 10
275.73758
 20
68.728206
 11
281.73758
 21
74.728206
  0
LINE
  8
1
  6
CONTINUOUS
 62
4
 10
275.73758
 20
67.313992
 11
281.73758
 21
73.313992
  0
LINE
  8
1
  6
CONTINUOUS
 62
4
 10
275.73758
 20
65.899779
 11
281.73758
 21
71.899779
  0
LINE
  8
1
  6
CONTINUOUS
 62
4
 10
275.73758
 20
64.485565
 11
281.73758
 21
70.485565
  0
LINE
  8
1
  6
CONTINUOUS
 62
4
 10
277.092919
 20
64.426691
 11
281.73758
 21
69.071352
  0
LINE
  8
1
  6
CONTINUOUS
 62
4
 10
278.507133
 20
64.426691
 11
281.73758
 21
67.657138
  0
LINE
  8
1
  6
CONTINUOUS
 62
4
 10
279.921346
 20
64.426691
 11
281.73758
 21
66.242924
  0
LINE
  8
1
  6
CONTINUOUS
 62
4
 10
281.33556
 20
64.426691
 11
281.73758
 21
64.828711
  0
ENDBLK
  0
BLOCK
  8
1
  2
BLKF077
 70
    0
 10
0
 20
0
 30
0.0
  3
BLKF077
  1

  0
LINE
  8
1
  6
CONTINUOUS
 62
4
 10
293.73758
 20
98.426691
 11
299.73758
 21
92.426691
  0
LINE
  8
1
  6
CONTINUOUS
 62
4
 10
295.151794
 20
98.426691
 11
299.73758
 21
93.840904
  0
LINE
  8
1
  6
CONTINUOUS
 62
4
 10
296.566007
 20
98.426691
 11
299.73758
 21
95.255118
  0
LINE
  8
1
  6
CONTINUOUS
 62
4
 10
297.980221
 20
98.426691
 11
299.73758
 21
96.669331
  0
LINE
  8
1
  6
CONTINUOUS
 62
4
 10
299.394434
 20
98.426691
 11
299.73758
 21
98.083545
  0
LINE
  8
1
  6
CONTINUOUS
 62
4
 10
293.73758
 20
97.012477
 11
299.73758
 21
91.012477
  0
LINE
  8
1
  6
CONTINUOUS
 62
4
 10
293.73758
 20
95.598264
 11
299.73758
 21
89.598264
  0
LINE
  8
1
  6
CONTINUOUS
 62
4
 10
293.73758
 20
94.18405
 11
299.73758
 21
88.18405
  0
LINE
  8
1
  6
CONTINUOUS
 62
4
 10
293.73758
 20
92.769836
 11
299.73758
 21
86.769836
  0
LINE
  8
1
  6
CONTINUOUS
 62
4
 10
293.73758
 20
91.355623
 11
299.73758
 21
85.355623
  0
LINE
  8
1
  6
CONTINUOUS
 62
4
 10
293.73758
 20
89.941409
 11
299.73758
 21
83.941409
  0
LINE
  8
1
  6
CONTINUOUS
 62
4
 10
293.73758
 20
88.527196
 11
299.73758
 21
82.527196
  0
LINE
  8
1
  6
CONTINUOUS
 62
4
 10
293.73758
 20
87.112982
 11
299.73758
 21
81.112982
  0
LINE
  8
1
  6
CONTINUOUS
 62
4
 10
293.73758
 20
85.698769
 11
299.73758
 21
79.698769
  0
LINE
  8
1
  6
CONTINUOUS
 62
4
 10
293.73758
 20
84.284555
 11
299.73758
 21
78.284555
  0
LINE
  8
1
  6
CONTINUOUS
 62
4
 10
293.73758
 20
82.870341
 11
299.73758
 21
76.870341
  0
LINE
  8
1
  6
CONTINUOUS
 62
4
 10
293.73758
 20
81.456128
 11
299.73758
 21
75.456128
  0
LINE
  8
1
  6
CONTINUOUS
 62
4
 10
293.73758
 20
80.041914
 11
299.73758
 21
74.041914
  0
LINE
  8
1
  6
CONTINUOUS
 62
4
 10
293.73758
 20
78.627701
 11
299.73758
 21
72.627701
  0
LINE
  8
1
  6
CONTINUOUS
 62
4
 10
293.73758
 20
77.213487
 11
299.73758
 21
71.213487
  0
LINE
  8
1
  6
CONTINUOUS
 62
4
 10
293.73758
 20
75.799274
 11
299.73758
 21
69.799274
  0
LINE
  8
1
  6
CONTINUOUS
 62
4
 10
293.73758
 20
74.38506
 11
299.73758
 21
68.38506
  0
LINE
  8
1
  6
CONTINUOUS
 62
4
 10
293.73758
 20
72.970847
 11
299.73758
 21
66.970847
  0
LINE
  8
1
  6
CONTINUOUS
 62
4
 10
293.73758
 20
71.556633
 11
299.73758
 21
65.556633
  0
LINE
  8
1
  6
CONTINUOUS
 62
4
 10
293.73758
 20
70.142419
 11
299.453309
 21
64.426691
  0
LINE
  8
1
  6
CONTINUOUS
 62
4
 10
293.73758
 20
68.728206
 11
298.039095
 21
64.426691
  0
LINE
  8
1
  6
CONTINUOUS
 62
4
 10
293.73758
 20
67.313992
 11
296.624882
 21
64.426691
  0
LINE
  8
1
  6
CONTINUOUS
 62
4
 10
293.73758
 20
65.899779
 11
295.210668
 21
64.426691
  0
LINE
  8
1
  6
CONTINUOUS
 62
4
 10
293.73758
 20
64.485565
 11
293.796455
 21
64.426691
  0
ENDBLK
  0
BLOCK
  8
1
  2
BLKF076
 70
    0
 10
0
 20
0
 30
0.0
  3
BLKF076
  1

  0
LINE
  8
1
  6
CONTINUOUS
 62
4
 10
293.73758
 20
97.012477
 11
295.151794
 21
98.426691
  0
LINE
  8
1
  6
CONTINUOUS
 62
4
 10
293.73758
 20
95.598264
 11
296.566007
 21
98.426691
  0
LINE
  8
1
  6
CONTINUOUS
 62
4
 10
293.73758
 20
94.18405
 11
297.980221
 21
98.426691
  0
LINE
  8
1
  6
CONTINUOUS
 62
4
 10
293.73758
 20
92.769836
 11
299.394434
 21
98.426691
  0
LINE
  8
1
  6
CONTINUOUS
 62
4
 10
293.73758
 20
91.355623
 11
299.73758
 21
97.355623
  0
LINE
  8
1
  6
CONTINUOUS
 62
4
 10
293.73758
 20
89.941409
 11
299.73758
 21
95.941409
  0
LINE
  8
1
  6
CONTINUOUS
 62
4
 10
293.73758
 20
88.527196
 11
299.73758
 21
94.527196
  0
LINE
  8
1
  6
CONTINUOUS
 62
4
 10
293.73758
 20
87.112982
 11
299.73758
 21
93.112982
  0
LINE
  8
1
  6
CONTINUOUS
 62
4
 10
293.73758
 20
85.698769
 11
299.73758
 21
91.698769
  0
LINE
  8
1
  6
CONTINUOUS
 62
4
 10
293.73758
 20
84.284555
 11
299.73758
 21
90.284555
  0
LINE
  8
1
  6
CONTINUOUS
 62
4
 10
293.73758
 20
82.870341
 11
299.73758
 21
88.870341
  0
LINE
  8
1
  6
CONTINUOUS
 62
4
 10
293.73758
 20
81.456128
 11
299.73758
 21
87.456128
  0
LINE
  8
1
  6
CONTINUOUS
 62
4
 10
293.73758
 20
80.041914
 11
299.73758
 21
86.041914
  0
LINE
  8
1
  6
CONTINUOUS
 62
4
 10
293.73758
 20
78.627701
 11
299.73758
 21
84.627701
  0
LINE
  8
1
  6
CONTINUOUS
 62
4
 10
293.73758
 20
77.213487
 11
299.73758
 21
83.213487
  0
LINE
  8
1
  6
CONTINUOUS
 62
4
 10
293.73758
 20
75.799274
 11
299.73758
 21
81.799274
  0
LINE
  8
1
  6
CONTINUOUS
 62
4
 10
293.73758
 20
74.38506
 11
299.73758
 21
80.38506
  0
LINE
  8
1
  6
CONTINUOUS
 62
4
 10
293.73758
 20
72.970847
 11
299.73758
 21
78.970847
  0
LINE
  8
1
  6
CONTINUOUS
 62
4
 10
293.73758
 20
71.556633
 11
299.73758
 21
77.556633
  0
LINE
  8
1
  6
CONTINUOUS
 62
4
 10
293.73758
 20
70.142419
 11
299.73758
 21
76.142419
  0
LINE
  8
1
  6
CONTINUOUS
 62
4
 10
293.73758
 20
68.728206
 11
299.73758
 21
74.728206
  0
LINE
  8
1
  6
CONTINUOUS
 62
4
 10
293.73758
 20
67.313992
 11
299.73758
 21
73.313992
  0
LINE
  8
1
  6
CONTINUOUS
 62
4
 10
293.73758
 20
65.899779
 11
299.73758
 21
71.899779
  0
LINE
  8
1
  6
CONTINUOUS
 62
4
 10
293.73758
 20
64.485565
 11
299.73758
 21
70.485565
  0
LINE
  8
1
  6
CONTINUOUS
 62
4
 10
295.092919
 20
64.426691
 11
299.73758
 21
69.071352
  0
LINE
  8
1
  6
CONTINUOUS
 62
4
 10
296.507133
 20
64.426691
 11
299.73758
 21
67.657138
  0
LINE
  8
1
  6
CONTINUOUS
 62
4
 10
297.921346
 20
64.426691
 11
299.73758
 21
66.242924
  0
LINE
  8
1
  6
CONTINUOUS
 62
4
 10
299.33556
 20
64.426691
 11
299.73758
 21
64.828711
  0
ENDBLK
  0
BLOCK
  8
1
  2
BLKF075
 70
    0
 10
0
 20
0
 30
0.0
  3
BLKF075
  1

  0
LINE
  8
1
  6
CONTINUOUS
 62
4
 10
311.73758
 20
98.426691
 11
317.73758
 21
92.426691
  0
LINE
  8
1
  6
CONTINUOUS
 62
4
 10
313.151794
 20
98.426691
 11
317.73758
 21
93.840904
  0
LINE
  8
1
  6
CONTINUOUS
 62
4
 10
314.566007
 20
98.426691
 11
317.73758
 21
95.255118
  0
LINE
  8
1
  6
CONTINUOUS
 62
4
 10
315.980221
 20
98.426691
 11
317.73758
 21
96.669331
  0
LINE
  8
1
  6
CONTINUOUS
 62
4
 10
317.394434
 20
98.426691
 11
317.73758
 21
98.083545
  0
LINE
  8
1
  6
CONTINUOUS
 62
4
 10
311.73758
 20
97.012477
 11
317.73758
 21
91.012477
  0
LINE
  8
1
  6
CONTINUOUS
 62
4
 10
311.73758
 20
95.598264
 11
317.73758
 21
89.598264
  0
LINE
  8
1
  6
CONTINUOUS
 62
4
 10
311.73758
 20
94.18405
 11
317.73758
 21
88.18405
  0
LINE
  8
1
  6
CONTINUOUS
 62
4
 10
311.73758
 20
92.769836
 11
317.73758
 21
86.769836
  0
LINE
  8
1
  6
CONTINUOUS
 62
4
 10
311.73758
 20
91.355623
 11
317.73758
 21
85.355623
  0
LINE
  8
1
  6
CONTINUOUS
 62
4
 10
311.73758
 20
89.941409
 11
317.73758
 21
83.941409
  0
LINE
  8
1
  6
CONTINUOUS
 62
4
 10
311.73758
 20
88.527196
 11
317.73758
 21
82.527196
  0
LINE
  8
1
  6
CONTINUOUS
 62
4
 10
311.73758
 20
87.112982
 11
317.73758
 21
81.112982
  0
LINE
  8
1
  6
CONTINUOUS
 62
4
 10
311.73758
 20
85.698769
 11
317.73758
 21
79.698769
  0
LINE
  8
1
  6
CONTINUOUS
 62
4
 10
311.73758
 20
84.284555
 11
317.73758
 21
78.284555
  0
LINE
  8
1
  6
CONTINUOUS
 62
4
 10
311.73758
 20
82.870341
 11
317.73758
 21
76.870341
  0
LINE
  8
1
  6
CONTINUOUS
 62
4
 10
311.73758
 20
81.456128
 11
317.73758
 21
75.456128
  0
LINE
  8
1
  6
CONTINUOUS
 62
4
 10
311.73758
 20
80.041914
 11
317.73758
 21
74.041914
  0
LINE
  8
1
  6
CONTINUOUS
 62
4
 10
311.73758
 20
78.627701
 11
317.73758
 21
72.627701
  0
LINE
  8
1
  6
CONTINUOUS
 62
4
 10
311.73758
 20
77.213487
 11
317.73758
 21
71.213487
  0
LINE
  8
1
  6
CONTINUOUS
 62
4
 10
311.73758
 20
75.799274
 11
317.73758
 21
69.799274
  0
LINE
  8
1
  6
CONTINUOUS
 62
4
 10
311.73758
 20
74.38506
 11
317.73758
 21
68.38506
  0
LINE
  8
1
  6
CONTINUOUS
 62
4
 10
311.73758
 20
72.970847
 11
317.73758
 21
66.970847
  0
LINE
  8
1
  6
CONTINUOUS
 62
4
 10
311.73758
 20
71.556633
 11
317.73758
 21
65.556633
  0
LINE
  8
1
  6
CONTINUOUS
 62
4
 10
311.73758
 20
70.142419
 11
317.453309
 21
64.426691
  0
LINE
  8
1
  6
CONTINUOUS
 62
4
 10
311.73758
 20
68.728206
 11
316.039095
 21
64.426691
  0
LINE
  8
1
  6
CONTINUOUS
 62
4
 10
311.73758
 20
67.313992
 11
314.624882
 21
64.426691
  0
LINE
  8
1
  6
CONTINUOUS
 62
4
 10
311.73758
 20
65.899779
 11
313.210668
 21
64.426691
  0
LINE
  8
1
  6
CONTINUOUS
 62
4
 10
311.73758
 20
64.485565
 11
311.796455
 21
64.426691
  0
ENDBLK
  0
BLOCK
  8
1
  2
BLKF074
 70
    0
 10
0
 20
0
 30
0.0
  3
BLKF074
  1

  0
LINE
  8
1
  6
CONTINUOUS
 62
4
 10
311.73758
 20
97.012477
 11
313.151794
 21
98.426691
  0
LINE
  8
1
  6
CONTINUOUS
 62
4
 10
311.73758
 20
95.598264
 11
314.566007
 21
98.426691
  0
LINE
  8
1
  6
CONTINUOUS
 62
4
 10
311.73758
 20
94.18405
 11
315.980221
 21
98.426691
  0
LINE
  8
1
  6
CONTINUOUS
 62
4
 10
311.73758
 20
92.769836
 11
317.394434
 21
98.426691
  0
LINE
  8
1
  6
CONTINUOUS
 62
4
 10
311.73758
 20
91.355623
 11
317.73758
 21
97.355623
  0
LINE
  8
1
  6
CONTINUOUS
 62
4
 10
311.73758
 20
89.941409
 11
317.73758
 21
95.941409
  0
LINE
  8
1
  6
CONTINUOUS
 62
4
 10
311.73758
 20
88.527196
 11
317.73758
 21
94.527196
  0
LINE
  8
1
  6
CONTINUOUS
 62
4
 10
311.73758
 20
87.112982
 11
317.73758
 21
93.112982
  0
LINE
  8
1
  6
CONTINUOUS
 62
4
 10
311.73758
 20
85.698769
 11
317.73758
 21
91.698769
  0
LINE
  8
1
  6
CONTINUOUS
 62
4
 10
311.73758
 20
84.284555
 11
317.73758
 21
90.284555
  0
LINE
  8
1
  6
CONTINUOUS
 62
4
 10
311.73758
 20
82.870341
 11
317.73758
 21
88.870341
  0
LINE
  8
1
  6
CONTINUOUS
 62
4
 10
311.73758
 20
81.456128
 11
317.73758
 21
87.456128
  0
LINE
  8
1
  6
CONTINUOUS
 62
4
 10
311.73758
 20
80.041914
 11
317.73758
 21
86.041914
  0
LINE
  8
1
  6
CONTINUOUS
 62
4
 10
311.73758
 20
78.627701
 11
317.73758
 21
84.627701
  0
LINE
  8
1
  6
CONTINUOUS
 62
4
 10
311.73758
 20
77.213487
 11
317.73758
 21
83.213487
  0
LINE
  8
1
  6
CONTINUOUS
 62
4
 10
311.73758
 20
75.799274
 11
317.73758
 21
81.799274
  0
LINE
  8
1
  6
CONTINUOUS
 62
4
 10
311.73758
 20
74.38506
 11
317.73758
 21
80.38506
  0
LINE
  8
1
  6
CONTINUOUS
 62
4
 10
311.73758
 20
72.970847
 11
317.73758
 21
78.970847
  0
LINE
  8
1
  6
CONTINUOUS
 62
4
 10
311.73758
 20
71.556633
 11
317.73758
 21
77.556633
  0
LINE
  8
1
  6
CONTINUOUS
 62
4
 10
311.73758
 20
70.142419
 11
317.73758
 21
76.142419
  0
LINE
  8
1
  6
CONTINUOUS
 62
4
 10
311.73758
 20
68.728206
 11
317.73758
 21
74.728206
  0
LINE
  8
1
  6
CONTINUOUS
 62
4
 10
311.73758
 20
67.313992
 11
317.73758
 21
73.313992
  0
LINE
  8
1
  6
CONTINUOUS
 62
4
 10
311.73758
 20
65.899779
 11
317.73758
 21
71.899779
  0
LINE
  8
1
  6
CONTINUOUS
 62
4
 10
311.73758
 20
64.485565
 11
317.73758
 21
70.485565
  0
LINE
  8
1
  6
CONTINUOUS
 62
4
 10
313.092919
 20
64.426691
 11
317.73758
 21
69.071352
  0
LINE
  8
1
  6
CONTINUOUS
 62
4
 10
314.507133
 20
64.426691
 11
317.73758
 21
67.657138
  0
LINE
  8
1
  6
CONTINUOUS
 62
4
 10
315.921346
 20
64.426691
 11
317.73758
 21
66.242924
  0
LINE
  8
1
  6
CONTINUOUS
 62
4
 10
317.33556
 20
64.426691
 11
317.73758
 21
64.828711
  0
ENDBLK
  0
BLOCK
  8
1
  2
BLKF073
 70
    0
 10
0
 20
0
 30
0.0
  3
BLKF073
  1

  0
TEXT
  8
1
 62
4
  6
BYLAYER
 62
4
 10
230.277573251724
 20
221.817947387695
 40
3.200000047684
  1
7
  7
Font_0
  0
LINE
  8
1
  6
CONTINUOUS
 62
4
 10
227.73758
 20
221.317943
 11
234.73758
 21
221.317943
  0
LINE
  8
1
  6
CONTINUOUS
 62
4
 10
227.73758
 20
221.317943
 11
230.635358
 21
222.094401
  0
LINE
  8
1
  6
CONTINUOUS
 62
4
 10
227.73758
 20
221.317943
 11
230.635358
 21
220.541486
  0
LINE
  8
1
  6
CONTINUOUS
 62
4
 10
234.73758
 20
221.317943
 11
231.839803
 21
222.094401
  0
LINE
  8
1
  6
CONTINUOUS
 62
4
 10
234.73758
 20
221.317943
 11
231.839803
 21
220.541486
  0
LINE
  8
1
  6
CONTINUOUS
 62
4
 10
234.73758
 20
204.231368
 11
234.73758
 21
222.317943
  0
ENDBLK
  0
BLOCK
  8
1
  2
BLKF072
 70
    0
 10
0
 20
0
 30
0.0
  3
BLKF072
  1

  0
TEXT
  8
1
 62
4
  6
BYLAYER
 62
4
 10
286.037591576576
 20
227.817947387695
 40
3.200000047684
  1
123
  7
Font_0
  0
LINE
  8
1
  6
CONTINUOUS
 62
4
 10
227.73758
 20
227.317943
 11
350.73758
 21
227.317943
  0
LINE
  8
1
  6
CONTINUOUS
 62
4
 10
227.73758
 20
227.317943
 11
230.635358
 21
228.094401
  0
LINE
  8
1
  6
CONTINUOUS
 62
4
 10
227.73758
 20
227.317943
 11
230.635358
 21
226.541486
  0
LINE
  8
1
  6
CONTINUOUS
 62
4
 10
350.73758
 20
227.317943
 11
347.839803
 21
228.094401
  0
LINE
  8
1
  6
CONTINUOUS
 62
4
 10
350.73758
 20
227.317943
 11
347.839803
 21
226.541486
  0
LINE
  8
1
  6
CONTINUOUS
 62
4
 10
227.73758
 20
204.174322
 11
227.73758
 21
228.317943
  0
LINE
  8
1
  6
CONTINUOUS
 62
4
 10
350.73758
 20
208.503435
 11
350.73758
 21
228.317943
  0
ENDBLK
  0
BLOCK
  8
1
  2
BLKF071
 70
    0
 10
0
 20
0
 30
0.0
  3
BLKF071
  1

  0
TEXT
  8
1
 62
4
  6
BYLAYER
 62
4
 10
288.137567162514
 20
276.829925537109
 40
3.200000047684
  1
62
  7
Font_0
  0
LINE
  8
1
  6
CONTINUOUS
 62
4
 10
258.73758
 20
276.329934
 11
320.73758
 21
276.329934
  0
LINE
  8
1
  6
CONTINUOUS
 62
4
 10
258.73758
 20
276.329934
 11
261.635358
 21
277.106391
  0
LINE
  8
1
  6
CONTINUOUS
 62
4
 10
258.73758
 20
276.329934
 11
261.635358
 21
275.553477
  0
LINE
  8
1
  6
CONTINUOUS
 62
4
 10
320.73758
 20
276.329934
 11
317.839803
 21
277.106391
  0
LINE
  8
1
  6
CONTINUOUS
 62
4
 10
320.73758
 20
276.329934
 11
317.839803
 21
275.553477
  0
LINE
  8
1
  6
CONTINUOUS
 62
4
 10
258.73758
 20
270.371125
 11
258.73758
 21
277.329934
  0
ENDBLK
  0
BLOCK
  8
1
  2
BLKF070
 70
    0
 10
0
 20
0
 30
0.0
  3
BLKF070
  1

  0
TEXT
  8
1
 62
4
  6
BYLAYER
 62
4
 10
272.637567162514
 20
282.829925537109
 40
3.200000047684
  1
93
  7
Font_0
  0
LINE
  8
1
  6
CONTINUOUS
 62
4
 10
227.73758
 20
282.329934
 11
320.73758
 21
282.329934
  0
LINE
  8
1
  6
CONTINUOUS
 62
4
 10
227.73758
 20
282.329934
 11
230.635358
 21
283.106391
  0
LINE
  8
1
  6
CONTINUOUS
 62
4
 10
227.73758
 20
282.329934
 11
230.635358
 21
281.553477
  0
LINE
  8
1
  6
CONTINUOUS
 62
4
 10
320.73758
 20
282.329934
 11
317.839803
 21
283.106391
  0
LINE
  8
1
  6
CONTINUOUS
 62
4
 10
320.73758
 20
282.329934
 11
317.839803
 21
281.553477
  0
LINE
  8
1
  6
CONTINUOUS
 62
4
 10
227.73758
 20
259.871125
 11
227.73758
 21
283.329934
  0
LINE
  8
1
  6
CONTINUOUS
 62
4
 10
320.73758
 20
270.371125
 11
320.73758
 21
283.329934
  0
ENDBLK
  0
BLOCK
  8
1
  2
BLKF069
 70
    0
 10
0
 20
0
 30
0.0
  3
BLKF069
  1

  0
TEXT
  8
1
 62
4
  6
BYLAYER
 62
4
 10
334.137567162514
 20
282.829925537109
 40
3.200000047684
  1
30
  7
Font_0
  0
LINE
  8
1
  6
CONTINUOUS
 62
4
 10
320.73758
 20
282.329934
 11
350.73758
 21
282.329934
  0
LINE
  8
1
  6
CONTINUOUS
 62
4
 10
320.73758
 20
282.329934
 11
323.635358
 21
283.106391
  0
LINE
  8
1
  6
CONTINUOUS
 62
4
 10
320.73758
 20
282.329934
 11
323.635358
 21
281.553477
  0
LINE
  8
1
  6
CONTINUOUS
 62
4
 10
350.73758
 20
282.329934
 11
347.839803
 21
283.106391
  0
LINE
  8
1
  6
CONTINUOUS
 62
4
 10
350.73758
 20
282.329934
 11
347.839803
 21
281.553477
  0
LINE
  8
1
  6
CONTINUOUS
 62
4
 10
350.73758
 20
260.371125
 11
350.73758
 21
283.329934
  0
ENDBLK
  0
BLOCK
  8
1
  2
BLKF068
 70
    0
 10
0
 20
0
 30
0.0
  3
BLKF068
  1

  0
TEXT
  8
1
 62
4
  6
BYLAYER
 62
4
 10
230.277573251724
 20
276.829925537109
 40
3.200000047684
  1
7
  7
Font_0
  0
LINE
  8
1
  6
CONTINUOUS
 62
4
 10
227.73758
 20
276.329934
 11
234.73758
 21
276.329934
  0
LINE
  8
1
  6
CONTINUOUS
 62
4
 10
227.73758
 20
276.329934
 11
230.635358
 21
277.106391
  0
LINE
  8
1
  6
CONTINUOUS
 62
4
 10
227.73758
 20
276.329934
 11
230.635358
 21
275.553477
  0
LINE
  8
1
  6
CONTINUOUS
 62
4
 10
234.73758
 20
276.329934
 11
231.839803
 21
277.106391
  0
LINE
  8
1
  6
CONTINUOUS
 62
4
 10
234.73758
 20
276.329934
 11
231.839803
 21
275.553477
  0
LINE
  8
1
  6
CONTINUOUS
 62
4
 10
234.73758
 20
263.818397
 11
234.73758
 21
277.329934
  0
ENDBLK
  0
BLOCK
  8
1
  2
BLKF067
 70
    0
 10
0
 20
0
 30
0.0
  3
BLKF067
  1

  0
LINE
  8
1
  6
CONTINUOUS
 62
4
 10
270.73758
 20
246.121125
 11
276.73758
 21
240.121125
  0
LINE
  8
1
  6
CONTINUOUS
 62
4
 10
272.151794
 20
246.121125
 11
276.73758
 21
241.535338
  0
LINE
  8
1
  6
CONTINUOUS
 62
4
 10
273.566007
 20
246.121125
 11
276.73758
 21
242.949552
  0
LINE
  8
1
  6
CONTINUOUS
 62
4
 10
274.980221
 20
246.121125
 11
276.73758
 21
244.363765
  0
LINE
  8
1
  6
CONTINUOUS
 62
4
 10
276.394434
 20
246.121125
 11
276.73758
 21
245.777979
  0
LINE
  8
1
  6
CONTINUOUS
 62
4
 10
270.73758
 20
244.706911
 11
276.73758
 21
238.706911
  0
LINE
  8
1
  6
CONTINUOUS
 62
4
 10
270.73758
 20
243.292698
 11
276.73758
 21
237.292698
  0
LINE
  8
1
  6
CONTINUOUS
 62
4
 10
270.73758
 20
241.878484
 11
276.73758
 21
235.878484
  0
LINE
  8
1
  6
CONTINUOUS
 62
4
 10
270.73758
 20
240.46427
 11
275.830726
 21
235.371125
  0
LINE
  8
1
  6
CONTINUOUS
 62
4
 10
270.73758
 20
239.050057
 11
274.416512
 21
235.371125
  0
LINE
  8
1
  6
CONTINUOUS
 62
4
 10
270.73758
 20
237.635843
 11
273.002299
 21
235.371125
  0
LINE
  8
1
  6
CONTINUOUS
 62
4
 10
270.73758
 20
236.22163
 11
271.588085
 21
235.371125
  0
ENDBLK
  0
BLOCK
  8
1
  2
BLKF066
 70
    0
 10
0
 20
0
 30
0.0
  3
BLKF066
  1

  0
LINE
  8
1
  6
CONTINUOUS
 62
4
 10
270.73758
 20
244.706911
 11
272.151794
 21
246.121125
  0
LINE
  8
1
  6
CONTINUOUS
 62
4
 10
270.73758
 20
243.292698
 11
273.566007
 21
246.121125
  0
LINE
  8
1
  6
CONTINUOUS
 62
4
 10
270.73758
 20
241.878484
 11
274.980221
 21
246.121125
  0
LINE
  8
1
  6
CONTINUOUS
 62
4
 10
270.73758
 20
240.46427
 11
276.394434
 21
246.121125
  0
LINE
  8
1
  6
CONTINUOUS
 62
4
 10
270.73758
 20
239.050057
 11
276.73758
 21
245.050057
  0
LINE
  8
1
  6
CONTINUOUS
 62
4
 10
270.73758
 20
237.635843
 11
276.73758
 21
243.635843
  0
LINE
  8
1
  6
CONTINUOUS
 62
4
 10
270.73758
 20
236.22163
 11
276.73758
 21
242.22163
  0
LINE
  8
1
  6
CONTINUOUS
 62
4
 10
271.301289
 20
235.371125
 11
276.73758
 21
240.807416
  0
LINE
  8
1
  6
CONTINUOUS
 62
4
 10
272.715502
 20
235.371125
 11
276.73758
 21
239.393203
  0
LINE
  8
1
  6
CONTINUOUS
 62
4
 10
274.129716
 20
235.371125
 11
276.73758
 21
237.978989
  0
LINE
  8
1
  6
CONTINUOUS
 62
4
 10
275.543929
 20
235.371125
 11
276.73758
 21
236.564776
  0
ENDBLK
  0
BLOCK
  8
1
  2
BLKF065
 70
    0
 10
0
 20
0
 30
0.0
  3
BLKF065
  1

  0
LINE
  8
1
  6
CONTINUOUS
 62
4
 10
286.73758
 20
246.121125
 11
292.73758
 21
240.121125
  0
LINE
  8
1
  6
CONTINUOUS
 62
4
 10
288.151794
 20
246.121125
 11
292.73758
 21
241.535338
  0
LINE
  8
1
  6
CONTINUOUS
 62
4
 10
289.566007
 20
246.121125
 11
292.73758
 21
242.949552
  0
LINE
  8
1
  6
CONTINUOUS
 62
4
 10
290.980221
 20
246.121125
 11
292.73758
 21
244.363765
  0
LINE
  8
1
  6
CONTINUOUS
 62
4
 10
292.394434
 20
246.121125
 11
292.73758
 21
245.777979
  0
LINE
  8
1
  6
CONTINUOUS
 62
4
 10
286.73758
 20
244.706911
 11
292.73758
 21
238.706911
  0
LINE
  8
1
  6
CONTINUOUS
 62
4
 10
286.73758
 20
243.292698
 11
292.73758
 21
237.292698
  0
LINE
  8
1
  6
CONTINUOUS
 62
4
 10
286.73758
 20
241.878484
 11
292.73758
 21
235.878484
  0
LINE
  8
1
  6
CONTINUOUS
 62
4
 10
286.73758
 20
240.46427
 11
291.830726
 21
235.371125
  0
LINE
  8
1
  6
CONTINUOUS
 62
4
 10
286.73758
 20
239.050057
 11
290.416512
 21
235.371125
  0
LINE
  8
1
  6
CONTINUOUS
 62
4
 10
286.73758
 20
237.635843
 11
289.002299
 21
235.371125
  0
LINE
  8
1
  6
CONTINUOUS
 62
4
 10
286.73758
 20
236.22163
 11
287.588085
 21
235.371125
  0
ENDBLK
  0
BLOCK
  8
1
  2
BLKF064
 70
    0
 10
0
 20
0
 30
0.0
  3
BLKF064
  1

  0
LINE
  8
1
  6
CONTINUOUS
 62
4
 10
286.73758
 20
244.706911
 11
288.151794
 21
246.121125
  0
LINE
  8
1
  6
CONTINUOUS
 62
4
 10
286.73758
 20
243.292698
 11
289.566007
 21
246.121125
  0
LINE
  8
1
  6
CONTINUOUS
 62
4
 10
286.73758
 20
241.878484
 11
290.980221
 21
246.121125
  0
LINE
  8
1
  6
CONTINUOUS
 62
4
 10
286.73758
 20
240.46427
 11
292.394434
 21
246.121125
  0
LINE
  8
1
  6
CONTINUOUS
 62
4
 10
286.73758
 20
239.050057
 11
292.73758
 21
245.050057
  0
LINE
  8
1
  6
CONTINUOUS
 62
4
 10
286.73758
 20
237.635843
 11
292.73758
 21
243.635843
  0
LINE
  8
1
  6
CONTINUOUS
 62
4
 10
286.73758
 20
236.22163
 11
292.73758
 21
242.22163
  0
LINE
  8
1
  6
CONTINUOUS
 62
4
 10
287.301289
 20
235.371125
 11
292.73758
 21
240.807416
  0
LINE
  8
1
  6
CONTINUOUS
 62
4
 10
288.715502
 20
235.371125
 11
292.73758
 21
239.393203
  0
LINE
  8
1
  6
CONTINUOUS
 62
4
 10
290.129716
 20
235.371125
 11
292.73758
 21
237.978989
  0
LINE
  8
1
  6
CONTINUOUS
 62
4
 10
291.543929
 20
235.371125
 11
292.73758
 21
236.564776
  0
ENDBLK
  0
BLOCK
  8
1
  2
BLKF063
 70
    0
 10
0
 20
0
 30
0.0
  3
BLKF063
  1

  0
LINE
  8
1
  6
CONTINUOUS
 62
4
 10
302.73758
 20
246.121125
 11
308.73758
 21
240.121125
  0
LINE
  8
1
  6
CONTINUOUS
 62
4
 10
304.151794
 20
246.121125
 11
308.73758
 21
241.535338
  0
LINE
  8
1
  6
CONTINUOUS
 62
4
 10
305.566007
 20
246.121125
 11
308.73758
 21
242.949552
  0
LINE
  8
1
  6
CONTINUOUS
 62
4
 10
306.980221
 20
246.121125
 11
308.73758
 21
244.363765
  0
LINE
  8
1
  6
CONTINUOUS
 62
4
 10
308.394434
 20
246.121125
 11
308.73758
 21
245.777979
  0
LINE
  8
1
  6
CONTINUOUS
 62
4
 10
302.73758
 20
244.706911
 11
308.73758
 21
238.706911
  0
LINE
  8
1
  6
CONTINUOUS
 62
4
 10
302.73758
 20
243.292698
 11
308.73758
 21
237.292698
  0
LINE
  8
1
  6
CONTINUOUS
 62
4
 10
302.73758
 20
241.878484
 11
308.73758
 21
235.878484
  0
LINE
  8
1
  6
CONTINUOUS
 62
4
 10
302.73758
 20
240.46427
 11
307.830726
 21
235.371125
  0
LINE
  8
1
  6
CONTINUOUS
 62
4
 10
302.73758
 20
239.050057
 11
306.416512
 21
235.371125
  0
LINE
  8
1
  6
CONTINUOUS
 62
4
 10
302.73758
 20
237.635843
 11
305.002299
 21
235.371125
  0
LINE
  8
1
  6
CONTINUOUS
 62
4
 10
302.73758
 20
236.22163
 11
303.588085
 21
235.371125
  0
ENDBLK
  0
BLOCK
  8
1
  2
BLKF062
 70
    0
 10
0
 20
0
 30
0.0
  3
BLKF062
  1

  0
LINE
  8
1
  6
CONTINUOUS
 62
4
 10
302.73758
 20
244.706911
 11
304.151794
 21
246.121125
  0
LINE
  8
1
  6
CONTINUOUS
 62
4
 10
302.73758
 20
243.292698
 11
305.566007
 21
246.121125
  0
LINE
  8
1
  6
CONTINUOUS
 62
4
 10
302.73758
 20
241.878484
 11
306.980221
 21
246.121125
  0
LINE
  8
1
  6
CONTINUOUS
 62
4
 10
302.73758
 20
240.46427
 11
308.394434
 21
246.121125
  0
LINE
  8
1
  6
CONTINUOUS
 62
4
 10
302.73758
 20
239.050057
 11
308.73758
 21
245.050057
  0
LINE
  8
1
  6
CONTINUOUS
 62
4
 10
302.73758
 20
237.635843
 11
308.73758
 21
243.635843
  0
LINE
  8
1
  6
CONTINUOUS
 62
4
 10
302.73758
 20
236.22163
 11
308.73758
 21
242.22163
  0
LINE
  8
1
  6
CONTINUOUS
 62
4
 10
303.301289
 20
235.371125
 11
308.73758
 21
240.807416
  0
LINE
  8
1
  6
CONTINUOUS
 62
4
 10
304.715502
 20
235.371125
 11
308.73758
 21
239.393203
  0
LINE
  8
1
  6
CONTINUOUS
 62
4
 10
306.129716
 20
235.371125
 11
308.73758
 21
237.978989
  0
LINE
  8
1
  6
CONTINUOUS
 62
4
 10
307.543929
 20
235.371125
 11
308.73758
 21
236.564776
  0
ENDBLK
  0
BLOCK
  8
1
  2
BLKF061
 70
    0
 10
0
 20
0
 30
0.0
  3
BLKF061
  1

  0
LINE
  8
1
  6
CONTINUOUS
 62
4
 10
270.73758
 20
269.371125
 11
276.73758
 21
263.371125
  0
LINE
  8
1
  6
CONTINUOUS
 62
4
 10
272.151794
 20
269.371125
 11
276.73758
 21
264.785338
  0
LINE
  8
1
  6
CONTINUOUS
 62
4
 10
273.566007
 20
269.371125
 11
276.73758
 21
266.199552
  0
LINE
  8
1
  6
CONTINUOUS
 62
4
 10
274.980221
 20
269.371125
 11
276.73758
 21
267.613765
  0
LINE
  8
1
  6
CONTINUOUS
 62
4
 10
276.394434
 20
269.371125
 11
276.73758
 21
269.027979
  0
LINE
  8
1
  6
CONTINUOUS
 62
4
 10
270.73758
 20
267.956911
 11
276.73758
 21
261.956911
  0
LINE
  8
1
  6
CONTINUOUS
 62
4
 10
270.73758
 20
266.542698
 11
276.73758
 21
260.542698
  0
LINE
  8
1
  6
CONTINUOUS
 62
4
 10
270.73758
 20
265.128484
 11
276.73758
 21
259.128484
  0
LINE
  8
1
  6
CONTINUOUS
 62
4
 10
270.73758
 20
263.71427
 11
275.830726
 21
258.621125
  0
LINE
  8
1
  6
CONTINUOUS
 62
4
 10
270.73758
 20
262.300057
 11
274.416512
 21
258.621125
  0
LINE
  8
1
  6
CONTINUOUS
 62
4
 10
270.73758
 20
260.885843
 11
273.002299
 21
258.621125
  0
LINE
  8
1
  6
CONTINUOUS
 62
4
 10
270.73758
 20
259.47163
 11
271.588085
 21
258.621125
  0
ENDBLK
  0
BLOCK
  8
1
  2
BLKF060
 70
    0
 10
0
 20
0
 30
0.0
  3
BLKF060
  1

  0
LINE
  8
1
  6
CONTINUOUS
 62
4
 10
270.73758
 20
267.956911
 11
272.151794
 21
269.371125
  0
LINE
  8
1
  6
CONTINUOUS
 62
4
 10
270.73758
 20
266.542698
 11
273.566007
 21
269.371125
  0
LINE
  8
1
  6
CONTINUOUS
 62
4
 10
270.73758
 20
265.128484
 11
274.980221
 21
269.371125
  0
LINE
  8
1
  6
CONTINUOUS
 62
4
 10
270.73758
 20
263.71427
 11
276.394434
 21
269.371125
  0
LINE
  8
1
  6
CONTINUOUS
 62
4
 10
270.73758
 20
262.300057
 11
276.73758
 21
268.300057
  0
LINE
  8
1
  6
CONTINUOUS
 62
4
 10
270.73758
 20
260.885843
 11
276.73758
 21
266.885843
  0
LINE
  8
1
  6
CONTINUOUS
 62
4
 10
270.73758
 20
259.47163
 11
276.73758
 21
265.47163
  0
LINE
  8
1
  6
CONTINUOUS
 62
4
 10
271.301289
 20
258.621125
 11
276.73758
 21
264.057416
  0
LINE
  8
1
  6
CONTINUOUS
 62
4
 10
272.715502
 20
258.621125
 11
276.73758
 21
262.643203
  0
LINE
  8
1
  6
CONTINUOUS
 62
4
 10
274.129716
 20
258.621125
 11
276.73758
 21
261.228989
  0
LINE
  8
1
  6
CONTINUOUS
 62
4
 10
275.543929
 20
258.621125
 11
276.73758
 21
259.814776
  0
ENDBLK
  0
BLOCK
  8
1
  2
BLKF059
 70
    0
 10
0
 20
0
 30
0.0
  3
BLKF059
  1

  0
LINE
  8
1
  6
CONTINUOUS
 62
4
 10
286.73758
 20
269.371125
 11
292.73758
 21
263.371125
  0
LINE
  8
1
  6
CONTINUOUS
 62
4
 10
288.151794
 20
269.371125
 11
292.73758
 21
264.785338
  0
LINE
  8
1
  6
CONTINUOUS
 62
4
 10
289.566007
 20
269.371125
 11
292.73758
 21
266.199552
  0
LINE
  8
1
  6
CONTINUOUS
 62
4
 10
290.980221
 20
269.371125
 11
292.73758
 21
267.613765
  0
LINE
  8
1
  6
CONTINUOUS
 62
4
 10
292.394434
 20
269.371125
 11
292.73758
 21
269.027979
  0
LINE
  8
1
  6
CONTINUOUS
 62
4
 10
286.73758
 20
267.956911
 11
292.73758
 21
261.956911
  0
LINE
  8
1
  6
CONTINUOUS
 62
4
 10
286.73758
 20
266.542698
 11
292.73758
 21
260.542698
  0
LINE
  8
1
  6
CONTINUOUS
 62
4
 10
286.73758
 20
265.128484
 11
292.73758
 21
259.128484
  0
LINE
  8
1
  6
CONTINUOUS
 62
4
 10
286.73758
 20
263.71427
 11
291.830726
 21
258.621125
  0
LINE
  8
1
  6
CONTINUOUS
 62
4
 10
286.73758
 20
262.300057
 11
290.416512
 21
258.621125
  0
LINE
  8
1
  6
CONTINUOUS
 62
4
 10
286.73758
 20
260.885843
 11
289.002299
 21
258.621125
  0
LINE
  8
1
  6
CONTINUOUS
 62
4
 10
286.73758
 20
259.47163
 11
287.588085
 21
258.621125
  0
ENDBLK
  0
BLOCK
  8
1
  2
BLKF058
 70
    0
 10
0
 20
0
 30
0.0
  3
BLKF058
  1

  0
LINE
  8
1
  6
CONTINUOUS
 62
4
 10
286.73758
 20
267.956911
 11
288.151794
 21
269.371125
  0
LINE
  8
1
  6
CONTINUOUS
 62
4
 10
286.73758
 20
266.542698
 11
289.566007
 21
269.371125
  0
LINE
  8
1
  6
CONTINUOUS
 62
4
 10
286.73758
 20
265.128484
 11
290.980221
 21
269.371125
  0
LINE
  8
1
  6
CONTINUOUS
 62
4
 10
286.73758
 20
263.71427
 11
292.394434
 21
269.371125
  0
LINE
  8
1
  6
CONTINUOUS
 62
4
 10
286.73758
 20
262.300057
 11
292.73758
 21
268.300057
  0
LINE
  8
1
  6
CONTINUOUS
 62
4
 10
286.73758
 20
260.885843
 11
292.73758
 21
266.885843
  0
LINE
  8
1
  6
CONTINUOUS
 62
4
 10
286.73758
 20
259.47163
 11
292.73758
 21
265.47163
  0
LINE
  8
1
  6
CONTINUOUS
 62
4
 10
287.301289
 20
258.621125
 11
292.73758
 21
264.057416
  0
LINE
  8
1
  6
CONTINUOUS
 62
4
 10
288.715502
 20
258.621125
 11
292.73758
 21
262.643203
  0
LINE
  8
1
  6
CONTINUOUS
 62
4
 10
290.129716
 20
258.621125
 11
292.73758
 21
261.228989
  0
LINE
  8
1
  6
CONTINUOUS
 62
4
 10
291.543929
 20
258.621125
 11
292.73758
 21
259.814776
  0
ENDBLK
  0
BLOCK
  8
1
  2
BLKF057
 70
    0
 10
0
 20
0
 30
0.0
  3
BLKF057
  1

  0
LINE
  8
1
  6
CONTINUOUS
 62
4
 10
302.73758
 20
269.371125
 11
308.73758
 21
263.371125
  0
LINE
  8
1
  6
CONTINUOUS
 62
4
 10
304.151794
 20
269.371125
 11
308.73758
 21
264.785338
  0
LINE
  8
1
  6
CONTINUOUS
 62
4
 10
305.566007
 20
269.371125
 11
308.73758
 21
266.199552
  0
LINE
  8
1
  6
CONTINUOUS
 62
4
 10
306.980221
 20
269.371125
 11
308.73758
 21
267.613765
  0
LINE
  8
1
  6
CONTINUOUS
 62
4
 10
308.394434
 20
269.371125
 11
308.73758
 21
269.027979
  0
LINE
  8
1
  6
CONTINUOUS
 62
4
 10
302.73758
 20
267.956911
 11
308.73758
 21
261.956911
  0
LINE
  8
1
  6
CONTINUOUS
 62
4
 10
302.73758
 20
266.542698
 11
308.73758
 21
260.542698
  0
LINE
  8
1
  6
CONTINUOUS
 62
4
 10
302.73758
 20
265.128484
 11
308.73758
 21
259.128484
  0
LINE
  8
1
  6
CONTINUOUS
 62
4
 10
302.73758
 20
263.71427
 11
307.830726
 21
258.621125
  0
LINE
  8
1
  6
CONTINUOUS
 62
4
 10
302.73758
 20
262.300057
 11
306.416512
 21
258.621125
  0
LINE
  8
1
  6
CONTINUOUS
 62
4
 10
302.73758
 20
260.885843
 11
305.002299
 21
258.621125
  0
LINE
  8
1
  6
CONTINUOUS
 62
4
 10
302.73758
 20
259.47163
 11
303.588085
 21
258.621125
  0
ENDBLK
  0
BLOCK
  8
1
  2
BLKF056
 70
    0
 10
0
 20
0
 30
0.0
  3
BLKF056
  1

  0
LINE
  8
1
  6
CONTINUOUS
 62
4
 10
302.73758
 20
267.956911
 11
304.151794
 21
269.371125
  0
LINE
  8
1
  6
CONTINUOUS
 62
4
 10
302.73758
 20
266.542698
 11
305.566007
 21
269.371125
  0
LINE
  8
1
  6
CONTINUOUS
 62
4
 10
302.73758
 20
265.128484
 11
306.980221
 21
269.371125
  0
LINE
  8
1
  6
CONTINUOUS
 62
4
 10
302.73758
 20
263.71427
 11
308.394434
 21
269.371125
  0
LINE
  8
1
  6
CONTINUOUS
 62
4
 10
302.73758
 20
262.300057
 11
308.73758
 21
268.300057
  0
LINE
  8
1
  6
CONTINUOUS
 62
4
 10
302.73758
 20
260.885843
 11
308.73758
 21
266.885843
  0
LINE
  8
1
  6
CONTINUOUS
 62
4
 10
302.73758
 20
259.47163
 11
308.73758
 21
265.47163
  0
LINE
  8
1
  6
CONTINUOUS
 62
4
 10
303.301289
 20
258.621125
 11
308.73758
 21
264.057416
  0
LINE
  8
1
  6
CONTINUOUS
 62
4
 10
304.715502
 20
258.621125
 11
308.73758
 21
262.643203
  0
LINE
  8
1
  6
CONTINUOUS
 62
4
 10
306.129716
 20
258.621125
 11
308.73758
 21
261.228989
  0
LINE
  8
1
  6
CONTINUOUS
 62
4
 10
307.543929
 20
258.621125
 11
308.73758
 21
259.814776
  0
ENDBLK
  0
BLOCK
  8
1
  2
BLKF055
 70
    0
 10
0
 20
0
 30
0.0
  3
BLKF055
  1

  0
LINE
  8
1
  6
CONTINUOUS
 62
4
 10
270.73758
 20
214.003435
 11
276.73758
 21
208.003435
  0
LINE
  8
1
  6
CONTINUOUS
 62
4
 10
272.151794
 20
214.003435
 11
276.73758
 21
209.417648
  0
LINE
  8
1
  6
CONTINUOUS
 62
4
 10
273.566007
 20
214.003435
 11
276.73758
 21
210.831862
  0
LINE
  8
1
  6
CONTINUOUS
 62
4
 10
274.980221
 20
214.003435
 11
276.73758
 21
212.246076
  0
LINE
  8
1
  6
CONTINUOUS
 62
4
 10
276.394434
 20
214.003435
 11
276.73758
 21
213.660289
  0
LINE
  8
1
  6
CONTINUOUS
 62
4
 10
270.73758
 20
212.589221
 11
276.73758
 21
206.589221
  0
LINE
  8
1
  6
CONTINUOUS
 62
4
 10
270.73758
 20
211.175008
 11
276.73758
 21
205.175008
  0
LINE
  8
1
  6
CONTINUOUS
 62
4
 10
270.73758
 20
209.760794
 11
276.73758
 21
203.760794
  0
LINE
  8
1
  6
CONTINUOUS
 62
4
 10
270.73758
 20
208.346581
 11
276.73758
 21
202.346581
  0
LINE
  8
1
  6
CONTINUOUS
 62
4
 10
270.73758
 20
206.932367
 11
276.73758
 21
200.932367
  0
LINE
  8
1
  6
CONTINUOUS
 62
4
 10
270.73758
 20
205.518153
 11
276.73758
 21
199.518153
  0
LINE
  8
1
  6
CONTINUOUS
 62
4
 10
270.73758
 20
204.10394
 11
276.73758
 21
198.10394
  0
LINE
  8
1
  6
CONTINUOUS
 62
4
 10
270.73758
 20
202.689726
 11
276.73758
 21
196.689726
  0
LINE
  8
1
  6
CONTINUOUS
 62
4
 10
270.73758
 20
201.275513
 11
276.73758
 21
195.275513
  0
LINE
  8
1
  6
CONTINUOUS
 62
4
 10
270.73758
 20
199.861299
 11
276.73758
 21
193.861299
  0
LINE
  8
1
  6
CONTINUOUS
 62
4
 10
270.73758
 20
198.447086
 11
276.73758
 21
192.447086
  0
LINE
  8
1
  6
CONTINUOUS
 62
4
 10
270.73758
 20
197.032872
 11
276.73758
 21
191.032872
  0
LINE
  8
1
  6
CONTINUOUS
 62
4
 10
270.73758
 20
195.618659
 11
276.73758
 21
189.618659
  0
LINE
  8
1
  6
CONTINUOUS
 62
4
 10
270.73758
 20
194.204445
 11
276.73758
 21
188.204445
  0
LINE
  8
1
  6
CONTINUOUS
 62
4
 10
270.73758
 20
192.790231
 11
276.73758
 21
186.790231
  0
LINE
  8
1
  6
CONTINUOUS
 62
4
 10
270.73758
 20
191.376018
 11
276.73758
 21
185.376018
  0
LINE
  8
1
  6
CONTINUOUS
 62
4
 10
270.73758
 20
189.961804
 11
276.73758
 21
183.961804
  0
LINE
  8
1
  6
CONTINUOUS
 62
4
 10
270.73758
 20
188.547591
 11
276.73758
 21
182.547591
  0
LINE
  8
1
  6
CONTINUOUS
 62
4
 10
270.73758
 20
187.133377
 11
276.73758
 21
181.133377
  0
LINE
  8
1
  6
CONTINUOUS
 62
4
 10
270.73758
 20
185.719164
 11
276.453309
 21
180.003435
  0
LINE
  8
1
  6
CONTINUOUS
 62
4
 10
270.73758
 20
184.30495
 11
275.039095
 21
180.003435
  0
LINE
  8
1
  6
CONTINUOUS
 62
4
 10
270.73758
 20
182.890736
 11
273.624882
 21
180.003435
  0
LINE
  8
1
  6
CONTINUOUS
 62
4
 10
270.73758
 20
181.476523
 11
272.210668
 21
180.003435
  0
LINE
  8
1
  6
CONTINUOUS
 62
4
 10
270.73758
 20
180.062309
 11
270.796455
 21
180.003435
  0
ENDBLK
  0
BLOCK
  8
1
  2
BLKF054
 70
    0
 10
0
 20
0
 30
0.0
  3
BLKF054
  1

  0
LINE
  8
1
  6
CONTINUOUS
 62
4
 10
270.73758
 20
212.589221
 11
272.151794
 21
214.003435
  0
LINE
  8
1
  6
CONTINUOUS
 62
4
 10
270.73758
 20
211.175008
 11
273.566007
 21
214.003435
  0
LINE
  8
1
  6
CONTINUOUS
 62
4
 10
270.73758
 20
209.760794
 11
274.980221
 21
214.003435
  0
LINE
  8
1
  6
CONTINUOUS
 62
4
 10
270.73758
 20
208.346581
 11
276.394434
 21
214.003435
  0
LINE
  8
1
  6
CONTINUOUS
 62
4
 10
270.73758
 20
206.932367
 11
276.73758
 21
212.932367
  0
LINE
  8
1
  6
CONTINUOUS
 62
4
 10
270.73758
 20
205.518153
 11
276.73758
 21
211.518153
  0
LINE
  8
1
  6
CONTINUOUS
 62
4
 10
270.73758
 20
204.10394
 11
276.73758
 21
210.10394
  0
LINE
  8
1
  6
CONTINUOUS
 62
4
 10
270.73758
 20
202.689726
 11
276.73758
 21
208.689726
  0
LINE
  8
1
  6
CONTINUOUS
 62
4
 10
270.73758
 20
201.275513
 11
276.73758
 21
207.275513
  0
LINE
  8
1
  6
CONTINUOUS
 62
4
 10
270.73758
 20
199.861299
 11
276.73758
 21
205.861299
  0
LINE
  8
1
  6
CONTINUOUS
 62
4
 10
270.73758
 20
198.447086
 11
276.73758
 21
204.447086
  0
LINE
  8
1
  6
CONTINUOUS
 62
4
 10
270.73758
 20
197.032872
 11
276.73758
 21
203.032872
  0
LINE
  8
1
  6
CONTINUOUS
 62
4
 10
270.73758
 20
195.618659
 11
276.73758
 21
201.618659
  0
LINE
  8
1
  6
CONTINUOUS
 62
4
 10
270.73758
 20
194.204445
 11
276.73758
 21
200.204445
  0
LINE
  8
1
  6
CONTINUOUS
 62
4
 10
270.73758
 20
192.790231
 11
276.73758
 21
198.790231
  0
LINE
  8
1
  6
CONTINUOUS
 62
4
 10
270.73758
 20
191.376018
 11
276.73758
 21
197.376018
  0
LINE
  8
1
  6
CONTINUOUS
 62
4
 10
270.73758
 20
189.961804
 11
276.73758
 21
195.961804
  0
LINE
  8
1
  6
CONTINUOUS
 62
4
 10
270.73758
 20
188.547591
 11
276.73758
 21
194.547591
  0
LINE
  8
1
  6
CONTINUOUS
 62
4
 10
270.73758
 20
187.133377
 11
276.73758
 21
193.133377
  0
LINE
  8
1
  6
CONTINUOUS
 62
4
 10
270.73758
 20
185.719164
 11
276.73758
 21
191.719164
  0
LINE
  8
1
  6
CONTINUOUS
 62
4
 10
270.73758
 20
184.30495
 11
276.73758
 21
190.30495
  0
LINE
  8
1
  6
CONTINUOUS
 62
4
 10
270.73758
 20
182.890736
 11
276.73758
 21
188.890736
  0
LINE
  8
1
  6
CONTINUOUS
 62
4
 10
270.73758
 20
181.476523
 11
276.73758
 21
187.476523
  0
LINE
  8
1
  6
CONTINUOUS
 62
4
 10
270.73758
 20
180.062309
 11
276.73758
 21
186.062309
  0
LINE
  8
1
  6
CONTINUOUS
 62
4
 10
272.092919
 20
180.003435
 11
276.73758
 21
184.648096
  0
LINE
  8
1
  6
CONTINUOUS
 62
4
 10
273.507133
 20
180.003435
 11
276.73758
 21
183.233882
  0
LINE
  8
1
  6
CONTINUOUS
 62
4
 10
274.921346
 20
180.003435
 11
276.73758
 21
181.819669
  0
LINE
  8
1
  6
CONTINUOUS
 62
4
 10
276.33556
 20
180.003435
 11
276.73758
 21
180.405455
  0
ENDBLK
  0
BLOCK
  8
1
  2
BLKF053
 70
    0
 10
0
 20
0
 30
0.0
  3
BLKF053
  1

  0
LINE
  8
1
  6
CONTINUOUS
 62
4
 10
286.73758
 20
214.003435
 11
292.73758
 21
208.003435
  0
LINE
  8
1
  6
CONTINUOUS
 62
4
 10
288.151794
 20
214.003435
 11
292.73758
 21
209.417648
  0
LINE
  8
1
  6
CONTINUOUS
 62
4
 10
289.566007
 20
214.003435
 11
292.73758
 21
210.831862
  0
LINE
  8
1
  6
CONTINUOUS
 62
4
 10
290.980221
 20
214.003435
 11
292.73758
 21
212.246076
  0
LINE
  8
1
  6
CONTINUOUS
 62
4
 10
292.394434
 20
214.003435
 11
292.73758
 21
213.660289
  0
LINE
  8
1
  6
CONTINUOUS
 62
4
 10
286.73758
 20
212.589221
 11
292.73758
 21
206.589221
  0
LINE
  8
1
  6
CONTINUOUS
 62
4
 10
286.73758
 20
211.175008
 11
292.73758
 21
205.175008
  0
LINE
  8
1
  6
CONTINUOUS
 62
4
 10
286.73758
 20
209.760794
 11
292.73758
 21
203.760794
  0
LINE
  8
1
  6
CONTINUOUS
 62
4
 10
286.73758
 20
208.346581
 11
292.73758
 21
202.346581
  0
LINE
  8
1
  6
CONTINUOUS
 62
4
 10
286.73758
 20
206.932367
 11
292.73758
 21
200.932367
  0
LINE
  8
1
  6
CONTINUOUS
 62
4
 10
286.73758
 20
205.518153
 11
292.73758
 21
199.518153
  0
LINE
  8
1
  6
CONTINUOUS
 62
4
 10
286.73758
 20
204.10394
 11
292.73758
 21
198.10394
  0
LINE
  8
1
  6
CONTINUOUS
 62
4
 10
286.73758
 20
202.689726
 11
292.73758
 21
196.689726
  0
LINE
  8
1
  6
CONTINUOUS
 62
4
 10
286.73758
 20
201.275513
 11
292.73758
 21
195.275513
  0
LINE
  8
1
  6
CONTINUOUS
 62
4
 10
286.73758
 20
199.861299
 11
292.73758
 21
193.861299
  0
LINE
  8
1
  6
CONTINUOUS
 62
4
 10
286.73758
 20
198.447086
 11
292.73758
 21
192.447086
  0
LINE
  8
1
  6
CONTINUOUS
 62
4
 10
286.73758
 20
197.032872
 11
292.73758
 21
191.032872
  0
LINE
  8
1
  6
CONTINUOUS
 62
4
 10
286.73758
 20
195.618659
 11
292.73758
 21
189.618659
  0
LINE
  8
1
  6
CONTINUOUS
 62
4
 10
286.73758
 20
194.204445
 11
292.73758
 21
188.204445
  0
LINE
  8
1
  6
CONTINUOUS
 62
4
 10
286.73758
 20
192.790231
 11
292.73758
 21
186.790231
  0
LINE
  8
1
  6
CONTINUOUS
 62
4
 10
286.73758
 20
191.376018
 11
292.73758
 21
185.376018
  0
LINE
  8
1
  6
CONTINUOUS
 62
4
 10
286.73758
 20
189.961804
 11
292.73758
 21
183.961804
  0
LINE
  8
1
  6
CONTINUOUS
 62
4
 10
286.73758
 20
188.547591
 11
292.73758
 21
182.547591
  0
LINE
  8
1
  6
CONTINUOUS
 62
4
 10
286.73758
 20
187.133377
 11
292.73758
 21
181.133377
  0
LINE
  8
1
  6
CONTINUOUS
 62
4
 10
286.73758
 20
185.719164
 11
292.453309
 21
180.003435
  0
LINE
  8
1
  6
CONTINUOUS
 62
4
 10
286.73758
 20
184.30495
 11
291.039095
 21
180.003435
  0
LINE
  8
1
  6
CONTINUOUS
 62
4
 10
286.73758
 20
182.890736
 11
289.624882
 21
180.003435
  0
LINE
  8
1
  6
CONTINUOUS
 62
4
 10
286.73758
 20
181.476523
 11
288.210668
 21
180.003435
  0
LINE
  8
1
  6
CONTINUOUS
 62
4
 10
286.73758
 20
180.062309
 11
286.796455
 21
180.003435
  0
ENDBLK
  0
BLOCK
  8
1
  2
BLKF052
 70
    0
 10
0
 20
0
 30
0.0
  3
BLKF052
  1

  0
LINE
  8
1
  6
CONTINUOUS
 62
4
 10
286.73758
 20
212.589221
 11
288.151794
 21
214.003435
  0
LINE
  8
1
  6
CONTINUOUS
 62
4
 10
286.73758
 20
211.175008
 11
289.566007
 21
214.003435
  0
LINE
  8
1
  6
CONTINUOUS
 62
4
 10
286.73758
 20
209.760794
 11
290.980221
 21
214.003435
  0
LINE
  8
1
  6
CONTINUOUS
 62
4
 10
286.73758
 20
208.346581
 11
292.394434
 21
214.003435
  0
LINE
  8
1
  6
CONTINUOUS
 62
4
 10
286.73758
 20
206.932367
 11
292.73758
 21
212.932367
  0
LINE
  8
1
  6
CONTINUOUS
 62
4
 10
286.73758
 20
205.518153
 11
292.73758
 21
211.518153
  0
LINE
  8
1
  6
CONTINUOUS
 62
4
 10
286.73758
 20
204.10394
 11
292.73758
 21
210.10394
  0
LINE
  8
1
  6
CONTINUOUS
 62
4
 10
286.73758
 20
202.689726
 11
292.73758
 21
208.689726
  0
LINE
  8
1
  6
CONTINUOUS
 62
4
 10
286.73758
 20
201.275513
 11
292.73758
 21
207.275513
  0
LINE
  8
1
  6
CONTINUOUS
 62
4
 10
286.73758
 20
199.861299
 11
292.73758
 21
205.861299
  0
LINE
  8
1
  6
CONTINUOUS
 62
4
 10
286.73758
 20
198.447086
 11
292.73758
 21
204.447086
  0
LINE
  8
1
  6
CONTINUOUS
 62
4
 10
286.73758
 20
197.032872
 11
292.73758
 21
203.032872
  0
LINE
  8
1
  6
CONTINUOUS
 62
4
 10
286.73758
 20
195.618659
 11
292.73758
 21
201.618659
  0
LINE
  8
1
  6
CONTINUOUS
 62
4
 10
286.73758
 20
194.204445
 11
292.73758
 21
200.204445
  0
LINE
  8
1
  6
CONTINUOUS
 62
4
 10
286.73758
 20
192.790231
 11
292.73758
 21
198.790231
  0
LINE
  8
1
  6
CONTINUOUS
 62
4
 10
286.73758
 20
191.376018
 11
292.73758
 21
197.376018
  0
LINE
  8
1
  6
CONTINUOUS
 62
4
 10
286.73758
 20
189.961804
 11
292.73758
 21
195.961804
  0
LINE
  8
1
  6
CONTINUOUS
 62
4
 10
286.73758
 20
188.547591
 11
292.73758
 21
194.547591
  0
LINE
  8
1
  6
CONTINUOUS
 62
4
 10
286.73758
 20
187.133377
 11
292.73758
 21
193.133377
  0
LINE
  8
1
  6
CONTINUOUS
 62
4
 10
286.73758
 20
185.719164
 11
292.73758
 21
191.719164
  0
LINE
  8
1
  6
CONTINUOUS
 62
4
 10
286.73758
 20
184.30495
 11
292.73758
 21
190.30495
  0
LINE
  8
1
  6
CONTINUOUS
 62
4
 10
286.73758
 20
182.890736
 11
292.73758
 21
188.890736
  0
LINE
  8
1
  6
CONTINUOUS
 62
4
 10
286.73758
 20
181.476523
 11
292.73758
 21
187.476523
  0
LINE
  8
1
  6
CONTINUOUS
 62
4
 10
286.73758
 20
180.062309
 11
292.73758
 21
186.062309
  0
LINE
  8
1
  6
CONTINUOUS
 62
4
 10
288.092919
 20
180.003435
 11
292.73758
 21
184.648096
  0
LINE
  8
1
  6
CONTINUOUS
 62
4
 10
289.507133
 20
180.003435
 11
292.73758
 21
183.233882
  0
LINE
  8
1
  6
CONTINUOUS
 62
4
 10
290.921346
 20
180.003435
 11
292.73758
 21
181.819669
  0
LINE
  8
1
  6
CONTINUOUS
 62
4
 10
292.33556
 20
180.003435
 11
292.73758
 21
180.405455
  0
ENDBLK
  0
BLOCK
  8
1
  2
BLKF051
 70
    0
 10
0
 20
0
 30
0.0
  3
BLKF051
  1

  0
LINE
  8
1
  6
CONTINUOUS
 62
4
 10
302.73758
 20
214.003435
 11
308.73758
 21
208.003435
  0
LINE
  8
1
  6
CONTINUOUS
 62
4
 10
304.151794
 20
214.003435
 11
308.73758
 21
209.417648
  0
LINE
  8
1
  6
CONTINUOUS
 62
4
 10
305.566007
 20
214.003435
 11
308.73758
 21
210.831862
  0
LINE
  8
1
  6
CONTINUOUS
 62
4
 10
306.980221
 20
214.003435
 11
308.73758
 21
212.246076
  0
LINE
  8
1
  6
CONTINUOUS
 62
4
 10
308.394434
 20
214.003435
 11
308.73758
 21
213.660289
  0
LINE
  8
1
  6
CONTINUOUS
 62
4
 10
302.73758
 20
212.589221
 11
308.73758
 21
206.589221
  0
LINE
  8
1
  6
CONTINUOUS
 62
4
 10
302.73758
 20
211.175008
 11
308.73758
 21
205.175008
  0
LINE
  8
1
  6
CONTINUOUS
 62
4
 10
302.73758
 20
209.760794
 11
308.73758
 21
203.760794
  0
LINE
  8
1
  6
CONTINUOUS
 62
4
 10
302.73758
 20
208.346581
 11
308.73758
 21
202.346581
  0
LINE
  8
1
  6
CONTINUOUS
 62
4
 10
302.73758
 20
206.932367
 11
308.73758
 21
200.932367
  0
LINE
  8
1
  6
CONTINUOUS
 62
4
 10
302.73758
 20
205.518153
 11
308.73758
 21
199.518153
  0
LINE
  8
1
  6
CONTINUOUS
 62
4
 10
302.73758
 20
204.10394
 11
308.73758
 21
198.10394
  0
LINE
  8
1
  6
CONTINUOUS
 62
4
 10
302.73758
 20
202.689726
 11
308.73758
 21
196.689726
  0
LINE
  8
1
  6
CONTINUOUS
 62
4
 10
302.73758
 20
201.275513
 11
308.73758
 21
195.275513
  0
LINE
  8
1
  6
CONTINUOUS
 62
4
 10
302.73758
 20
199.861299
 11
308.73758
 21
193.861299
  0
LINE
  8
1
  6
CONTINUOUS
 62
4
 10
302.73758
 20
198.447086
 11
308.73758
 21
192.447086
  0
LINE
  8
1
  6
CONTINUOUS
 62
4
 10
302.73758
 20
197.032872
 11
308.73758
 21
191.032872
  0
LINE
  8
1
  6
CONTINUOUS
 62
4
 10
302.73758
 20
195.618659
 11
308.73758
 21
189.618659
  0
LINE
  8
1
  6
CONTINUOUS
 62
4
 10
302.73758
 20
194.204445
 11
308.73758
 21
188.204445
  0
LINE
  8
1
  6
CONTINUOUS
 62
4
 10
302.73758
 20
192.790231
 11
308.73758
 21
186.790231
  0
LINE
  8
1
  6
CONTINUOUS
 62
4
 10
302.73758
 20
191.376018
 11
308.73758
 21
185.376018
  0
LINE
  8
1
  6
CONTINUOUS
 62
4
 10
302.73758
 20
189.961804
 11
308.73758
 21
183.961804
  0
LINE
  8
1
  6
CONTINUOUS
 62
4
 10
302.73758
 20
188.547591
 11
308.73758
 21
182.547591
  0
LINE
  8
1
  6
CONTINUOUS
 62
4
 10
302.73758
 20
187.133377
 11
308.73758
 21
181.133377
  0
LINE
  8
1
  6
CONTINUOUS
 62
4
 10
302.73758
 20
185.719164
 11
308.453309
 21
180.003435
  0
LINE
  8
1
  6
CONTINUOUS
 62
4
 10
302.73758
 20
184.30495
 11
307.039095
 21
180.003435
  0
LINE
  8
1
  6
CONTINUOUS
 62
4
 10
302.73758
 20
182.890736
 11
305.624882
 21
180.003435
  0
LINE
  8
1
  6
CONTINUOUS
 62
4
 10
302.73758
 20
181.476523
 11
304.210668
 21
180.003435
  0
LINE
  8
1
  6
CONTINUOUS
 62
4
 10
302.73758
 20
180.062309
 11
302.796455
 21
180.003435
  0
ENDBLK
  0
BLOCK
  8
1
  2
BLKF050
 70
    0
 10
0
 20
0
 30
0.0
  3
BLKF050
  1

  0
LINE
  8
1
  6
CONTINUOUS
 62
4
 10
302.73758
 20
212.589221
 11
304.151794
 21
214.003435
  0
LINE
  8
1
  6
CONTINUOUS
 62
4
 10
302.73758
 20
211.175008
 11
305.566007
 21
214.003435
  0
LINE
  8
1
  6
CONTINUOUS
 62
4
 10
302.73758
 20
209.760794
 11
306.980221
 21
214.003435
  0
LINE
  8
1
  6
CONTINUOUS
 62
4
 10
302.73758
 20
208.346581
 11
308.394434
 21
214.003435
  0
LINE
  8
1
  6
CONTINUOUS
 62
4
 10
302.73758
 20
206.932367
 11
308.73758
 21
212.932367
  0
LINE
  8
1
  6
CONTINUOUS
 62
4
 10
302.73758
 20
205.518153
 11
308.73758
 21
211.518153
  0
LINE
  8
1
  6
CONTINUOUS
 62
4
 10
302.73758
 20
204.10394
 11
308.73758
 21
210.10394
  0
LINE
  8
1
  6
CONTINUOUS
 62
4
 10
302.73758
 20
202.689726
 11
308.73758
 21
208.689726
  0
LINE
  8
1
  6
CONTINUOUS
 62
4
 10
302.73758
 20
201.275513
 11
308.73758
 21
207.275513
  0
LINE
  8
1
  6
CONTINUOUS
 62
4
 10
302.73758
 20
199.861299
 11
308.73758
 21
205.861299
  0
LINE
  8
1
  6
CONTINUOUS
 62
4
 10
302.73758
 20
198.447086
 11
308.73758
 21
204.447086
  0
LINE
  8
1
  6
CONTINUOUS
 62
4
 10
302.73758
 20
197.032872
 11
308.73758
 21
203.032872
  0
LINE
  8
1
  6
CONTINUOUS
 62
4
 10
302.73758
 20
195.618659
 11
308.73758
 21
201.618659
  0
LINE
  8
1
  6
CONTINUOUS
 62
4
 10
302.73758
 20
194.204445
 11
308.73758
 21
200.204445
  0
LINE
  8
1
  6
CONTINUOUS
 62
4
 10
302.73758
 20
192.790231
 11
308.73758
 21
198.790231
  0
LINE
  8
1
  6
CONTINUOUS
 62
4
 10
302.73758
 20
191.376018
 11
308.73758
 21
197.376018
  0
LINE
  8
1
  6
CONTINUOUS
 62
4
 10
302.73758
 20
189.961804
 11
308.73758
 21
195.961804
  0
LINE
  8
1
  6
CONTINUOUS
 62
4
 10
302.73758
 20
188.547591
 11
308.73758
 21
194.547591
  0
LINE
  8
1
  6
CONTINUOUS
 62
4
 10
302.73758
 20
187.133377
 11
308.73758
 21
193.133377
  0
LINE
  8
1
  6
CONTINUOUS
 62
4
 10
302.73758
 20
185.719164
 11
308.73758
 21
191.719164
  0
LINE
  8
1
  6
CONTINUOUS
 62
4
 10
302.73758
 20
184.30495
 11
308.73758
 21
190.30495
  0
LINE
  8
1
  6
CONTINUOUS
 62
4
 10
302.73758
 20
182.890736
 11
308.73758
 21
188.890736
  0
LINE
  8
1
  6
CONTINUOUS
 62
4
 10
302.73758
 20
181.476523
 11
308.73758
 21
187.476523
  0
LINE
  8
1
  6
CONTINUOUS
 62
4
 10
302.73758
 20
180.062309
 11
308.73758
 21
186.062309
  0
LINE
  8
1
  6
CONTINUOUS
 62
4
 10
304.092919
 20
180.003435
 11
308.73758
 21
184.648096
  0
LINE
  8
1
  6
CONTINUOUS
 62
4
 10
305.507133
 20
180.003435
 11
308.73758
 21
183.233882
  0
LINE
  8
1
  6
CONTINUOUS
 62
4
 10
306.921346
 20
180.003435
 11
308.73758
 21
181.819669
  0
LINE
  8
1
  6
CONTINUOUS
 62
4
 10
308.33556
 20
180.003435
 11
308.73758
 21
180.405455
  0
ENDBLK
  0
BLOCK
  8
1
  2
BLKF049
 70
    0
 10
0
 20
0
 30
0.0
  3
BLKF049
  1

  0
TEXT
  8
1
 62
4
  6
BYLAYER
 62
4
 10
35.902816772461
 20
75.996209740639
 40
3.200000047684
  1
%%c30
  7
Font_0
 50
90
  0
LINE
  8
1
  6
CONTINUOUS
 62
4
 10
36.402817
 20
64.196211
 11
36.402817
 21
94.196211
  0
LINE
  8
1
  6
CONTINUOUS
 62
4
 10
36.402817
 20
64.196211
 11
35.62636
 21
67.093989
  0
LINE
  8
1
  6
CONTINUOUS
 62
4
 10
36.402817
 20
64.196211
 11
37.179274
 21
67.093989
  0
LINE
  8
1
  6
CONTINUOUS
 62
4
 10
36.402817
 20
94.196211
 11
35.62636
 21
91.298434
  0
LINE
  8
1
  6
CONTINUOUS
 62
4
 10
36.402817
 20
94.196211
 11
37.179274
 21
91.298434
  0
LINE
  8
1
  6
CONTINUOUS
 62
4
 10
75.836259
 20
64.196211
 11
35.402817
 21
64.196211
  0
LINE
  8
1
  6
CONTINUOUS
 62
4
 10
75.836259
 20
94.196211
 11
35.402817
 21
94.196211
  0
ENDBLK
  0
BLOCK
  8
1
  2
BLKF048
 70
    0
 10
0
 20
0
 30
0.0
  3
BLKF048
  1

  0
TEXT
  8
1
 62
4
  6
BYLAYER
 62
4
 10
51.376259469986
 20
105.945930480957
 40
3.200000047684
  1
7
  7
Font_0
  0
LINE
  8
1
  6
CONTINUOUS
 62
4
 10
48.836259
 20
105.445931
 11
55.836259
 21
105.445931
  0
LINE
  8
1
  6
CONTINUOUS
 62
4
 10
48.836259
 20
105.445931
 11
51.734037
 21
106.222388
  0
LINE
  8
1
  6
CONTINUOUS
 62
4
 10
48.836259
 20
105.445931
 11
51.734037
 21
104.669474
  0
LINE
  8
1
  6
CONTINUOUS
 62
4
 10
55.836259
 20
105.445931
 11
52.938482
 21
106.222388
  0
LINE
  8
1
  6
CONTINUOUS
 62
4
 10
55.836259
 20
105.445931
 11
52.938482
 21
104.669474
  0
LINE
  8
1
  6
CONTINUOUS
 62
4
 10
55.836259
 20
84.787681
 11
55.836259
 21
106.445931
  0
ENDBLK
  0
BLOCK
  8
1
  2
BLKF047
 70
    0
 10
0
 20
0
 30
0.0
  3
BLKF047
  1

  0
TEXT
  8
1
 62
4
  6
BYLAYER
 62
4
 10
97.136254906654
 20
111.945930480957
 40
3.200000047684
  1
103
  7
Font_0
  0
LINE
  8
1
  6
CONTINUOUS
 62
4
 10
48.836259
 20
111.445931
 11
151.836259
 21
111.445931
  0
LINE
  8
1
  6
CONTINUOUS
 62
4
 10
48.836259
 20
111.445931
 11
51.734037
 21
112.222388
  0
LINE
  8
1
  6
CONTINUOUS
 62
4
 10
48.836259
 20
111.445931
 11
51.734037
 21
110.669474
  0
LINE
  8
1
  6
CONTINUOUS
 62
4
 10
151.836259
 20
111.445931
 11
148.938482
 21
112.222388
  0
LINE
  8
1
  6
CONTINUOUS
 62
4
 10
151.836259
 20
111.445931
 11
148.938482
 21
110.669474
  0
LINE
  8
1
  6
CONTINUOUS
 62
4
 10
48.836259
 20
85.84858
 11
48.836259
 21
112.445931
  0
LINE
  8
1
  6
CONTINUOUS
 62
4
 10
151.836259
 20
89.696211
 11
151.836259
 21
112.445931
  0
ENDBLK
  0
BLOCK
  8
1
  2
BLKF046
 70
    0
 10
0
 20
0
 30
0.0
  3
BLKF046
  1

  0
TEXT
  8
1
 62
4
  6
BYLAYER
 62
4
 10
41.902816772461
 20
134.868912363052
 40
3.200000047684
  1
7
  7
Font_0
 50
90
  0
LINE
  8
1
  6
CONTINUOUS
 62
4
 10
42.402817
 20
132.328904
 11
42.402817
 21
139.328904
  0
LINE
  8
1
  6
CONTINUOUS
 62
4
 10
42.402817
 20
132.328904
 11
41.62636
 21
135.226681
  0
LINE
  8
1
  6
CONTINUOUS
 62
4
 10
42.402817
 20
132.328904
 11
43.179274
 21
135.226681
  0
LINE
  8
1
  6
CONTINUOUS
 62
4
 10
42.402817
 20
139.328904
 11
41.62636
 21
136.431126
  0
LINE
  8
1
  6
CONTINUOUS
 62
4
 10
42.402817
 20
139.328904
 11
43.179274
 21
136.431126
  0
LINE
  8
1
  6
CONTINUOUS
 62
4
 10
47.836259
 20
132.328904
 11
41.402817
 21
132.328904
  0
LINE
  8
1
  6
CONTINUOUS
 62
4
 10
47.836259
 20
139.328904
 11
41.402817
 21
139.328904
  0
ENDBLK
  0
BLOCK
  8
1
  2
BLKF045
 70
    0
 10
0
 20
0
 30
0.0
  3
BLKF045
  1

  0
TEXT
  8
1
 62
4
  6
BYLAYER
 62
4
 10
35.902816772461
 20
134.228906273842
 40
3.200000047684
  1
17
  7
Font_0
 50
90
  0
LINE
  8
1
  6
CONTINUOUS
 62
4
 10
36.402817
 20
127.328904
 11
36.402817
 21
144.328904
  0
LINE
  8
1
  6
CONTINUOUS
 62
4
 10
36.402817
 20
127.328904
 11
35.62636
 21
130.226681
  0
LINE
  8
1
  6
CONTINUOUS
 62
4
 10
36.402817
 20
127.328904
 11
37.179274
 21
130.226681
  0
LINE
  8
1
  6
CONTINUOUS
 62
4
 10
36.402817
 20
144.328904
 11
35.62636
 21
141.431126
  0
LINE
  8
1
  6
CONTINUOUS
 62
4
 10
36.402817
 20
144.328904
 11
37.179274
 21
141.431126
  0
LINE
  8
1
  6
CONTINUOUS
 62
4
 10
49.836259
 20
127.328904
 11
35.402817
 21
127.328904
  0
LINE
  8
1
  6
CONTINUOUS
 62
4
 10
49.836259
 20
144.328904
 11
35.402817
 21
144.328904
  0
ENDBLK
  0
BLOCK
  8
1
  2
BLKF044
 70
    0
 10
0
 20
0
 30
0.0
  3
BLKF044
  1

  0
TEXT
  8
1
 62
4
  6
BYLAYER
 62
4
 10
98.23626101017
 20
158.044311523438
 40
3.200000047684
  1
46
  7
Font_0
  0
LINE
  8
1
  6
CONTINUOUS
 62
4
 10
76.836259
 20
157.544311
 11
122.836259
 21
157.544311
  0
LINE
  8
1
  6
CONTINUOUS
 62
4
 10
76.836259
 20
157.544311
 11
79.734037
 21
158.320768
  0
LINE
  8
1
  6
CONTINUOUS
 62
4
 10
76.836259
 20
157.544311
 11
79.734037
 21
156.767854
  0
LINE
  8
1
  6
CONTINUOUS
 62
4
 10
122.836259
 20
157.544311
 11
119.938482
 21
158.320768
  0
LINE
  8
1
  6
CONTINUOUS
 62
4
 10
122.836259
 20
157.544311
 11
119.938482
 21
156.767854
  0
LINE
  8
1
  6
CONTINUOUS
 62
4
 10
76.836259
 20
151.828904
 11
76.836259
 21
158.544311
  0
ENDBLK
  0
BLOCK
  8
1
  2
BLKF043
 70
    0
 10
0
 20
0
 30
0.0
  3
BLKF043
  1

  0
TEXT
  8
1
 62
4
  6
BYLAYER
 62
4
 10
51.376259469986
 20
158.044311523438
 40
3.200000047684
  1
7
  7
Font_0
  0
LINE
  8
1
  6
CONTINUOUS
 62
4
 10
48.836259
 20
157.544311
 11
55.836259
 21
157.544311
  0
LINE
  8
1
  6
CONTINUOUS
 62
4
 10
48.836259
 20
157.544311
 11
51.734037
 21
158.320768
  0
LINE
  8
1
  6
CONTINUOUS
 62
4
 10
48.836259
 20
157.544311
 11
51.734037
 21
156.767854
  0
LINE
  8
1
  6
CONTINUOUS
 62
4
 10
55.836259
 20
157.544311
 11
52.938482
 21
158.320768
  0
LINE
  8
1
  6
CONTINUOUS
 62
4
 10
55.836259
 20
157.544311
 11
52.938482
 21
156.767854
  0
LINE
  8
1
  6
CONTINUOUS
 62
4
 10
55.836259
 20
147.250233
 11
55.836259
 21
158.544311
  0
ENDBLK
  0
BLOCK
  8
1
  2
BLKF042
 70
    0
 10
0
 20
0
 30
0.0
  3
BLKF042
  1

  0
TEXT
  8
1
 62
4
  6
BYLAYER
 62
4
 10
84.23626101017
 20
164.044311523438
 40
3.200000047684
  1
74
  7
Font_0
  0
LINE
  8
1
  6
CONTINUOUS
 62
4
 10
48.836259
 20
163.544311
 11
122.836259
 21
163.544311
  0
LINE
  8
1
  6
CONTINUOUS
 62
4
 10
48.836259
 20
163.544311
 11
51.734037
 21
164.320768
  0
LINE
  8
1
  6
CONTINUOUS
 62
4
 10
48.836259
 20
163.544311
 11
51.734037
 21
162.767854
  0
LINE
  8
1
  6
CONTINUOUS
 62
4
 10
122.836259
 20
163.544311
 11
119.938482
 21
164.320768
  0
LINE
  8
1
  6
CONTINUOUS
 62
4
 10
122.836259
 20
163.544311
 11
119.938482
 21
162.767854
  0
LINE
  8
1
  6
CONTINUOUS
 62
4
 10
48.836259
 20
143.328904
 11
48.836259
 21
164.544311
  0
LINE
  8
1
  6
CONTINUOUS
 62
4
 10
122.836259
 20
151.828904
 11
122.836259
 21
164.544311
  0
ENDBLK
  0
BLOCK
  8
1
  2
BLKF041
 70
    0
 10
0
 20
0
 30
0.0
  3
BLKF041
  1

  0
LINE
  8
1
  6
CONTINUOUS
 62
4
 10
86.836259
 20
120.828904
 11
92.836259
 21
126.828904
  0
LINE
  8
1
  6
CONTINUOUS
 62
4
 10
88.250473
 20
120.828904
 11
92.836259
 21
125.41469
  0
LINE
  8
1
  6
CONTINUOUS
 62
4
 10
89.664686
 20
120.828904
 11
92.836259
 21
124.000477
  0
LINE
  8
1
  6
CONTINUOUS
 62
4
 10
91.0789
 20
120.828904
 11
92.836259
 21
122.586263
  0
LINE
  8
1
  6
CONTINUOUS
 62
4
 10
92.493113
 20
120.828904
 11
92.836259
 21
121.17205
  0
LINE
  8
1
  6
CONTINUOUS
 62
4
 10
86.836259
 20
122.243117
 11
92.836259
 21
128.243117
  0
LINE
  8
1
  6
CONTINUOUS
 62
4
 10
86.836259
 20
123.657331
 11
92.757832
 21
129.578904
  0
LINE
  8
1
  6
CONTINUOUS
 62
4
 10
86.836259
 20
125.071545
 11
91.343618
 21
129.578904
  0
LINE
  8
1
  6
CONTINUOUS
 62
4
 10
86.836259
 20
126.485758
 11
89.929405
 21
129.578904
  0
LINE
  8
1
  6
CONTINUOUS
 62
4
 10
86.836259
 20
127.899972
 11
88.515191
 21
129.578904
  0
LINE
  8
1
  6
CONTINUOUS
 62
4
 10
86.836259
 20
129.314185
 11
87.100978
 21
129.578904
  0
ENDBLK
  0
BLOCK
  8
1
  2
BLKF040
 70
    0
 10
0
 20
0
 30
0.0
  3
BLKF040
  1

  0
LINE
  8
1
  6
CONTINUOUS
 62
4
 10
86.836259
 20
122.243117
 11
88.250473
 21
120.828904
  0
LINE
  8
1
  6
CONTINUOUS
 62
4
 10
86.836259
 20
123.657331
 11
89.664686
 21
120.828904
  0
LINE
  8
1
  6
CONTINUOUS
 62
4
 10
86.836259
 20
125.071545
 11
91.0789
 21
120.828904
  0
LINE
  8
1
  6
CONTINUOUS
 62
4
 10
86.836259
 20
126.485758
 11
92.493113
 21
120.828904
  0
LINE
  8
1
  6
CONTINUOUS
 62
4
 10
86.836259
 20
127.899972
 11
92.836259
 21
121.899972
  0
LINE
  8
1
  6
CONTINUOUS
 62
4
 10
86.836259
 20
129.314185
 11
92.836259
 21
123.314185
  0
LINE
  8
1
  6
CONTINUOUS
 62
4
 10
87.985754
 20
129.578904
 11
92.836259
 21
124.728399
  0
LINE
  8
1
  6
CONTINUOUS
 62
4
 10
89.399968
 20
129.578904
 11
92.836259
 21
126.142612
  0
LINE
  8
1
  6
CONTINUOUS
 62
4
 10
90.814181
 20
129.578904
 11
92.836259
 21
127.556826
  0
LINE
  8
1
  6
CONTINUOUS
 62
4
 10
92.228395
 20
129.578904
 11
92.836259
 21
128.97104
  0
ENDBLK
  0
BLOCK
  8
1
  2
BLKF039
 70
    0
 10
0
 20
0
 30
0.0
  3
BLKF039
  1

  0
LINE
  8
1
  6
CONTINUOUS
 62
4
 10
87.475653
 20
120.828904
 11
86.937471
 21
120.828904
  0
ENDBLK
  0
BLOCK
  8
1
  2
BLKF038
 70
    0
 10
0
 20
0
 30
0.0
  3
BLKF038
  1

  0
LINE
  8
1
  6
CONTINUOUS
 62
4
 10
106.836259
 20
120.828904
 11
112.836259
 21
126.828904
  0
LINE
  8
1
  6
CONTINUOUS
 62
4
 10
108.250473
 20
120.828904
 11
112.836259
 21
125.41469
  0
LINE
  8
1
  6
CONTINUOUS
 62
4
 10
109.664686
 20
120.828904
 11
112.836259
 21
124.000477
  0
LINE
  8
1
  6
CONTINUOUS
 62
4
 10
111.0789
 20
120.828904
 11
112.836259
 21
122.586263
  0
LINE
  8
1
  6
CONTINUOUS
 62
4
 10
112.493113
 20
120.828904
 11
112.836259
 21
121.17205
  0
LINE
  8
1
  6
CONTINUOUS
 62
4
 10
106.836259
 20
122.243117
 11
112.836259
 21
128.243117
  0
LINE
  8
1
  6
CONTINUOUS
 62
4
 10
106.836259
 20
123.657331
 11
112.757832
 21
129.578904
  0
LINE
  8
1
  6
CONTINUOUS
 62
4
 10
106.836259
 20
125.071545
 11
111.343618
 21
129.578904
  0
LINE
  8
1
  6
CONTINUOUS
 62
4
 10
106.836259
 20
126.485758
 11
109.929405
 21
129.578904
  0
LINE
  8
1
  6
CONTINUOUS
 62
4
 10
106.836259
 20
127.899972
 11
108.515191
 21
129.578904
  0
LINE
  8
1
  6
CONTINUOUS
 62
4
 10
106.836259
 20
129.314185
 11
107.100978
 21
129.578904
  0
ENDBLK
  0
BLOCK
  8
1
  2
BLKF037
 70
    0
 10
0
 20
0
 30
0.0
  3
BLKF037
  1

  0
LINE
  8
1
  6
CONTINUOUS
 62
4
 10
106.836259
 20
122.243117
 11
108.250473
 21
120.828904
  0
LINE
  8
1
  6
CONTINUOUS
 62
4
 10
106.836259
 20
123.657331
 11
109.664686
 21
120.828904
  0
LINE
  8
1
  6
CONTINUOUS
 62
4
 10
106.836259
 20
125.071545
 11
111.0789
 21
120.828904
  0
LINE
  8
1
  6
CONTINUOUS
 62
4
 10
106.836259
 20
126.485758
 11
112.493113
 21
120.828904
  0
LINE
  8
1
  6
CONTINUOUS
 62
4
 10
106.836259
 20
127.899972
 11
112.836259
 21
121.899972
  0
LINE
  8
1
  6
CONTINUOUS
 62
4
 10
106.836259
 20
129.314185
 11
112.836259
 21
123.314185
  0
LINE
  8
1
  6
CONTINUOUS
 62
4
 10
107.985754
 20
129.578904
 11
112.836259
 21
124.728399
  0
LINE
  8
1
  6
CONTINUOUS
 62
4
 10
109.399968
 20
129.578904
 11
112.836259
 21
126.142612
  0
LINE
  8
1
  6
CONTINUOUS
 62
4
 10
110.814181
 20
129.578904
 11
112.836259
 21
127.556826
  0
LINE
  8
1
  6
CONTINUOUS
 62
4
 10
112.228395
 20
129.578904
 11
112.836259
 21
128.97104
  0
ENDBLK
  0
BLOCK
  8
1
  2
BLKF036
 70
    0
 10
0
 20
0
 30
0.0
  3
BLKF036
  1

  0
LINE
  8
1
  6
CONTINUOUS
 62
4
 10
107.475653
 20
120.828904
 11
106.937471
 21
120.828904
  0
ENDBLK
  0
BLOCK
  8
1
  2
BLKF035
 70
    0
 10
0
 20
0
 30
0.0
  3
BLKF035
  1

  0
LINE
  8
1
  6
CONTINUOUS
 62
4
 10
86.836259
 20
150.828904
 11
92.836259
 21
144.828904
  0
LINE
  8
1
  6
CONTINUOUS
 62
4
 10
88.250473
 20
150.828904
 11
92.836259
 21
146.243117
  0
LINE
  8
1
  6
CONTINUOUS
 62
4
 10
89.664686
 20
150.828904
 11
92.836259
 21
147.657331
  0
LINE
  8
1
  6
CONTINUOUS
 62
4
 10
91.0789
 20
150.828904
 11
92.836259
 21
149.071545
  0
LINE
  8
1
  6
CONTINUOUS
 62
4
 10
92.493113
 20
150.828904
 11
92.836259
 21
150.485758
  0
LINE
  8
1
  6
CONTINUOUS
 62
4
 10
86.836259
 20
149.41469
 11
92.836259
 21
143.41469
  0
LINE
  8
1
  6
CONTINUOUS
 62
4
 10
86.836259
 20
148.000477
 11
92.757832
 21
142.078904
  0
LINE
  8
1
  6
CONTINUOUS
 62
4
 10
86.836259
 20
146.586263
 11
91.343618
 21
142.078904
  0
LINE
  8
1
  6
CONTINUOUS
 62
4
 10
86.836259
 20
145.17205
 11
89.929405
 21
142.078904
  0
LINE
  8
1
  6
CONTINUOUS
 62
4
 10
86.836259
 20
143.757836
 11
88.515191
 21
142.078904
  0
LINE
  8
1
  6
CONTINUOUS
 62
4
 10
86.836259
 20
142.343623
 11
87.100978
 21
142.078904
  0
ENDBLK
  0
BLOCK
  8
1
  2
BLKF034
 70
    0
 10
0
 20
0
 30
0.0
  3
BLKF034
  1

  0
LINE
  8
1
  6
CONTINUOUS
 62
4
 10
86.836259
 20
149.41469
 11
88.250473
 21
150.828904
  0
LINE
  8
1
  6
CONTINUOUS
 62
4
 10
86.836259
 20
148.000477
 11
89.664686
 21
150.828904
  0
LINE
  8
1
  6
CONTINUOUS
 62
4
 10
86.836259
 20
146.586263
 11
91.0789
 21
150.828904
  0
LINE
  8
1
  6
CONTINUOUS
 62
4
 10
86.836259
 20
145.17205
 11
92.493113
 21
150.828904
  0
LINE
  8
1
  6
CONTINUOUS
 62
4
 10
86.836259
 20
143.757836
 11
92.836259
 21
149.757836
  0
LINE
  8
1
  6
CONTINUOUS
 62
4
 10
86.836259
 20
142.343623
 11
92.836259
 21
148.343623
  0
LINE
  8
1
  6
CONTINUOUS
 62
4
 10
87.985754
 20
142.078904
 11
92.836259
 21
146.929409
  0
LINE
  8
1
  6
CONTINUOUS
 62
4
 10
89.399968
 20
142.078904
 11
92.836259
 21
145.515195
  0
LINE
  8
1
  6
CONTINUOUS
 62
4
 10
90.814181
 20
142.078904
 11
92.836259
 21
144.100982
  0
LINE
  8
1
  6
CONTINUOUS
 62
4
 10
92.228395
 20
142.078904
 11
92.836259
 21
142.686768
  0
ENDBLK
  0
BLOCK
  8
1
  2
BLKF033
 70
    0
 10
0
 20
0
 30
0.0
  3
BLKF033
  1

  0
LINE
  8
1
  6
CONTINUOUS
 62
4
 10
87.475653
 20
150.828904
 11
86.937471
 21
150.828904
  0
ENDBLK
  0
BLOCK
  8
1
  2
BLKF032
 70
    0
 10
0
 20
0
 30
0.0
  3
BLKF032
  1

  0
LINE
  8
1
  6
CONTINUOUS
 62
4
 10
106.836259
 20
150.828904
 11
112.836259
 21
144.828904
  0
LINE
  8
1
  6
CONTINUOUS
 62
4
 10
108.250473
 20
150.828904
 11
112.836259
 21
146.243117
  0
LINE
  8
1
  6
CONTINUOUS
 62
4
 10
109.664686
 20
150.828904
 11
112.836259
 21
147.657331
  0
LINE
  8
1
  6
CONTINUOUS
 62
4
 10
111.0789
 20
150.828904
 11
112.836259
 21
149.071545
  0
LINE
  8
1
  6
CONTINUOUS
 62
4
 10
112.493113
 20
150.828904
 11
112.836259
 21
150.485758
  0
LINE
  8
1
  6
CONTINUOUS
 62
4
 10
106.836259
 20
149.41469
 11
112.836259
 21
143.41469
  0
LINE
  8
1
  6
CONTINUOUS
 62
4
 10
106.836259
 20
148.000477
 11
112.757832
 21
142.078904
  0
LINE
  8
1
  6
CONTINUOUS
 62
4
 10
106.836259
 20
146.586263
 11
111.343618
 21
142.078904
  0
LINE
  8
1
  6
CONTINUOUS
 62
4
 10
106.836259
 20
145.17205
 11
109.929405
 21
142.078904
  0
LINE
  8
1
  6
CONTINUOUS
 62
4
 10
106.836259
 20
143.757836
 11
108.515191
 21
142.078904
  0
LINE
  8
1
  6
CONTINUOUS
 62
4
 10
106.836259
 20
142.343623
 11
107.100978
 21
142.078904
  0
ENDBLK
  0
BLOCK
  8
1
  2
BLKF031
 70
    0
 10
0
 20
0
 30
0.0
  3
BLKF031
  1

  0
LINE
  8
1
  6
CONTINUOUS
 62
4
 10
106.836259
 20
149.41469
 11
108.250473
 21
150.828904
  0
LINE
  8
1
  6
CONTINUOUS
 62
4
 10
106.836259
 20
148.000477
 11
109.664686
 21
150.828904
  0
LINE
  8
1
  6
CONTINUOUS
 62
4
 10
106.836259
 20
146.586263
 11
111.0789
 21
150.828904
  0
LINE
  8
1
  6
CONTINUOUS
 62
4
 10
106.836259
 20
145.17205
 11
112.493113
 21
150.828904
  0
LINE
  8
1
  6
CONTINUOUS
 62
4
 10
106.836259
 20
143.757836
 11
112.836259
 21
149.757836
  0
LINE
  8
1
  6
CONTINUOUS
 62
4
 10
106.836259
 20
142.343623
 11
112.836259
 21
148.343623
  0
LINE
  8
1
  6
CONTINUOUS
 62
4
 10
107.985754
 20
142.078904
 11
112.836259
 21
146.929409
  0
LINE
  8
1
  6
CONTINUOUS
 62
4
 10
109.399968
 20
142.078904
 11
112.836259
 21
145.515195
  0
LINE
  8
1
  6
CONTINUOUS
 62
4
 10
110.814181
 20
142.078904
 11
112.836259
 21
144.100982
  0
LINE
  8
1
  6
CONTINUOUS
 62
4
 10
112.228395
 20
142.078904
 11
112.836259
 21
142.686768
  0
ENDBLK
  0
BLOCK
  8
1
  2
BLKF030
 70
    0
 10
0
 20
0
 30
0.0
  3
BLKF030
  1

  0
LINE
  8
1
  6
CONTINUOUS
 62
4
 10
106.836259
 20
94.196211
 11
112.836259
 21
88.196211
  0
LINE
  8
1
  6
CONTINUOUS
 62
4
 10
108.250473
 20
94.196211
 11
112.836259
 21
89.610425
  0
LINE
  8
1
  6
CONTINUOUS
 62
4
 10
109.664686
 20
94.196211
 11
112.836259
 21
91.024639
  0
LINE
  8
1
  6
CONTINUOUS
 62
4
 10
111.0789
 20
94.196211
 11
112.836259
 21
92.438852
  0
LINE
  8
1
  6
CONTINUOUS
 62
4
 10
112.493113
 20
94.196211
 11
112.836259
 21
93.853066
  0
LINE
  8
1
  6
CONTINUOUS
 62
4
 10
106.836259
 20
92.781998
 11
112.836259
 21
86.781998
  0
LINE
  8
1
  6
CONTINUOUS
 62
4
 10
106.836259
 20
91.367784
 11
112.836259
 21
85.367784
  0
LINE
  8
1
  6
CONTINUOUS
 62
4
 10
106.836259
 20
89.953571
 11
112.836259
 21
83.953571
  0
LINE
  8
1
  6
CONTINUOUS
 62
4
 10
106.836259
 20
88.539357
 11
112.836259
 21
82.539357
  0
LINE
  8
1
  6
CONTINUOUS
 62
4
 10
106.836259
 20
87.125144
 11
112.836259
 21
81.125144
  0
LINE
  8
1
  6
CONTINUOUS
 62
4
 10
106.836259
 20
85.71093
 11
112.836259
 21
79.71093
  0
LINE
  8
1
  6
CONTINUOUS
 62
4
 10
106.836259
 20
84.296717
 11
112.836259
 21
78.296717
  0
LINE
  8
1
  6
CONTINUOUS
 62
4
 10
106.836259
 20
82.882503
 11
112.836259
 21
76.882503
  0
LINE
  8
1
  6
CONTINUOUS
 62
4
 10
106.836259
 20
81.468289
 11
112.836259
 21
75.468289
  0
LINE
  8
1
  6
CONTINUOUS
 62
4
 10
106.836259
 20
80.054076
 11
112.836259
 21
74.054076
  0
LINE
  8
1
  6
CONTINUOUS
 62
4
 10
106.836259
 20
78.639862
 11
112.836259
 21
72.639862
  0
LINE
  8
1
  6
CONTINUOUS
 62
4
 10
106.836259
 20
77.225649
 11
112.836259
 21
71.225649
  0
LINE
  8
1
  6
CONTINUOUS
 62
4
 10
106.836259
 20
75.811435
 11
112.836259
 21
69.811435
  0
LINE
  8
1
  6
CONTINUOUS
 62
4
 10
106.836259
 20
74.397222
 11
112.836259
 21
68.397222
  0
LINE
  8
1
  6
CONTINUOUS
 62
4
 10
106.836259
 20
72.983008
 11
112.836259
 21
66.983008
  0
LINE
  8
1
  6
CONTINUOUS
 62
4
 10
106.836259
 20
71.568794
 11
112.836259
 21
65.568794
  0
LINE
  8
1
  6
CONTINUOUS
 62
4
 10
106.836259
 20
70.154581
 11
112.794629
 21
64.196211
  0
LINE
  8
1
  6
CONTINUOUS
 62
4
 10
106.836259
 20
68.740367
 11
111.380415
 21
64.196211
  0
LINE
  8
1
  6
CONTINUOUS
 62
4
 10
106.836259
 20
67.326154
 11
109.966201
 21
64.196211
  0
LINE
  8
1
  6
CONTINUOUS
 62
4
 10
106.836259
 20
65.91194
 11
108.551988
 21
64.196211
  0
LINE
  8
1
  6
CONTINUOUS
 62
4
 10
106.836259
 20
64.497727
 11
107.137774
 21
64.196211
  0
ENDBLK
  0
BLOCK
  8
1
  2
BLKF029
 70
    0
 10
0
 20
0
 30
0.0
  3
BLKF029
  1

  0
LINE
  8
1
  6
CONTINUOUS
 62
4
 10
106.836259
 20
92.781998
 11
108.250473
 21
94.196211
  0
LINE
  8
1
  6
CONTINUOUS
 62
4
 10
106.836259
 20
91.367784
 11
109.664686
 21
94.196211
  0
LINE
  8
1
  6
CONTINUOUS
 62
4
 10
106.836259
 20
89.953571
 11
111.0789
 21
94.196211
  0
LINE
  8
1
  6
CONTINUOUS
 62
4
 10
106.836259
 20
88.539357
 11
112.493113
 21
94.196211
  0
LINE
  8
1
  6
CONTINUOUS
 62
4
 10
106.836259
 20
87.125144
 11
112.836259
 21
93.125144
  0
LINE
  8
1
  6
CONTINUOUS
 62
4
 10
106.836259
 20
85.71093
 11
112.836259
 21
91.71093
  0
LINE
  8
1
  6
CONTINUOUS
 62
4
 10
106.836259
 20
84.296717
 11
112.836259
 21
90.296717
  0
LINE
  8
1
  6
CONTINUOUS
 62
4
 10
106.836259
 20
82.882503
 11
112.836259
 21
88.882503
  0
LINE
  8
1
  6
CONTINUOUS
 62
4
 10
106.836259
 20
81.468289
 11
112.836259
 21
87.468289
  0
LINE
  8
1
  6
CONTINUOUS
 62
4
 10
106.836259
 20
80.054076
 11
112.836259
 21
86.054076
  0
LINE
  8
1
  6
CONTINUOUS
 62
4
 10
106.836259
 20
78.639862
 11
112.836259
 21
84.639862
  0
LINE
  8
1
  6
CONTINUOUS
 62
4
 10
106.836259
 20
77.225649
 11
112.836259
 21
83.225649
  0
LINE
  8
1
  6
CONTINUOUS
 62
4
 10
106.836259
 20
75.811435
 11
112.836259
 21
81.811435
  0
LINE
  8
1
  6
CONTINUOUS
 62
4
 10
106.836259
 20
74.397222
 11
112.836259
 21
80.397222
  0
LINE
  8
1
  6
CONTINUOUS
 62
4
 10
106.836259
 20
72.983008
 11
112.836259
 21
78.983008
  0
LINE
  8
1
  6
CONTINUOUS
 62
4
 10
106.836259
 20
71.568794
 11
112.836259
 21
77.568794
  0
LINE
  8
1
  6
CONTINUOUS
 62
4
 10
106.836259
 20
70.154581
 11
112.836259
 21
76.154581
  0
LINE
  8
1
  6
CONTINUOUS
 62
4
 10
106.836259
 20
68.740367
 11
112.836259
 21
74.740367
  0
LINE
  8
1
  6
CONTINUOUS
 62
4
 10
106.836259
 20
67.326154
 11
112.836259
 21
73.326154
  0
LINE
  8
1
  6
CONTINUOUS
 62
4
 10
106.836259
 20
65.91194
 11
112.836259
 21
71.91194
  0
LINE
  8
1
  6
CONTINUOUS
 62
4
 10
106.836259
 20
64.497727
 11
112.836259
 21
70.497727
  0
LINE
  8
1
  6
CONTINUOUS
 62
4
 10
107.948957
 20
64.196211
 11
112.836259
 21
69.083513
  0
LINE
  8
1
  6
CONTINUOUS
 62
4
 10
109.363171
 20
64.196211
 11
112.836259
 21
67.6693
  0
LINE
  8
1
  6
CONTINUOUS
 62
4
 10
110.777385
 20
64.196211
 11
112.836259
 21
66.255086
  0
LINE
  8
1
  6
CONTINUOUS
 62
4
 10
112.191598
 20
64.196211
 11
112.836259
 21
64.840872
  0
ENDBLK
  0
BLOCK
  8
1
  2
BLKF028
 70
    0
 10
0
 20
0
 30
0.0
  3
BLKF028
  1

  0
LINE
  8
1
  6
CONTINUOUS
 62
4
 10
86.836259
 20
94.196211
 11
92.836259
 21
88.196211
  0
LINE
  8
1
  6
CONTINUOUS
 62
4
 10
88.250473
 20
94.196211
 11
92.836259
 21
89.610425
  0
LINE
  8
1
  6
CONTINUOUS
 62
4
 10
89.664686
 20
94.196211
 11
92.836259
 21
91.024639
  0
LINE
  8
1
  6
CONTINUOUS
 62
4
 10
91.0789
 20
94.196211
 11
92.836259
 21
92.438852
  0
LINE
  8
1
  6
CONTINUOUS
 62
4
 10
92.493113
 20
94.196211
 11
92.836259
 21
93.853066
  0
LINE
  8
1
  6
CONTINUOUS
 62
4
 10
86.836259
 20
92.781998
 11
92.836259
 21
86.781998
  0
LINE
  8
1
  6
CONTINUOUS
 62
4
 10
86.836259
 20
91.367784
 11
92.836259
 21
85.367784
  0
LINE
  8
1
  6
CONTINUOUS
 62
4
 10
86.836259
 20
89.953571
 11
92.836259
 21
83.953571
  0
LINE
  8
1
  6
CONTINUOUS
 62
4
 10
86.836259
 20
88.539357
 11
92.836259
 21
82.539357
  0
LINE
  8
1
  6
CONTINUOUS
 62
4
 10
86.836259
 20
87.125144
 11
92.836259
 21
81.125144
  0
LINE
  8
1
  6
CONTINUOUS
 62
4
 10
86.836259
 20
85.71093
 11
92.836259
 21
79.71093
  0
LINE
  8
1
  6
CONTINUOUS
 62
4
 10
86.836259
 20
84.296717
 11
92.836259
 21
78.296717
  0
LINE
  8
1
  6
CONTINUOUS
 62
4
 10
86.836259
 20
82.882503
 11
92.836259
 21
76.882503
  0
LINE
  8
1
  6
CONTINUOUS
 62
4
 10
86.836259
 20
81.468289
 11
92.836259
 21
75.468289
  0
LINE
  8
1
  6
CONTINUOUS
 62
4
 10
86.836259
 20
80.054076
 11
92.836259
 21
74.054076
  0
LINE
  8
1
  6
CONTINUOUS
 62
4
 10
86.836259
 20
78.639862
 11
92.836259
 21
72.639862
  0
LINE
  8
1
  6
CONTINUOUS
 62
4
 10
86.836259
 20
77.225649
 11
92.836259
 21
71.225649
  0
LINE
  8
1
  6
CONTINUOUS
 62
4
 10
86.836259
 20
75.811435
 11
92.836259
 21
69.811435
  0
LINE
  8
1
  6
CONTINUOUS
 62
4
 10
86.836259
 20
74.397222
 11
92.836259
 21
68.397222
  0
LINE
  8
1
  6
CONTINUOUS
 62
4
 10
86.836259
 20
72.983008
 11
92.836259
 21
66.983008
  0
LINE
  8
1
  6
CONTINUOUS
 62
4
 10
86.836259
 20
71.568794
 11
92.836259
 21
65.568794
  0
LINE
  8
1
  6
CONTINUOUS
 62
4
 10
86.836259
 20
70.154581
 11
92.794629
 21
64.196211
  0
LINE
  8
1
  6
CONTINUOUS
 62
4
 10
86.836259
 20
68.740367
 11
91.380415
 21
64.196211
  0
LINE
  8
1
  6
CONTINUOUS
 62
4
 10
86.836259
 20
67.326154
 11
89.966201
 21
64.196211
  0
LINE
  8
1
  6
CONTINUOUS
 62
4
 10
86.836259
 20
65.91194
 11
88.551988
 21
64.196211
  0
LINE
  8
1
  6
CONTINUOUS
 62
4
 10
86.836259
 20
64.497727
 11
87.137774
 21
64.196211
  0
ENDBLK
  0
BLOCK
  8
1
  2
BLKF027
 70
    0
 10
0
 20
0
 30
0.0
  3
BLKF027
  1

  0
LINE
  8
1
  6
CONTINUOUS
 62
4
 10
86.836259
 20
92.781998
 11
88.250473
 21
94.196211
  0
LINE
  8
1
  6
CONTINUOUS
 62
4
 10
86.836259
 20
91.367784
 11
89.664686
 21
94.196211
  0
LINE
  8
1
  6
CONTINUOUS
 62
4
 10
86.836259
 20
89.953571
 11
91.0789
 21
94.196211
  0
LINE
  8
1
  6
CONTINUOUS
 62
4
 10
86.836259
 20
88.539357
 11
92.493113
 21
94.196211
  0
LINE
  8
1
  6
CONTINUOUS
 62
4
 10
86.836259
 20
87.125144
 11
92.836259
 21
93.125144
  0
LINE
  8
1
  6
CONTINUOUS
 62
4
 10
86.836259
 20
85.71093
 11
92.836259
 21
91.71093
  0
LINE
  8
1
  6
CONTINUOUS
 62
4
 10
86.836259
 20
84.296717
 11
92.836259
 21
90.296717
  0
LINE
  8
1
  6
CONTINUOUS
 62
4
 10
86.836259
 20
82.882503
 11
92.836259
 21
88.882503
  0
LINE
  8
1
  6
CONTINUOUS
 62
4
 10
86.836259
 20
81.468289
 11
92.836259
 21
87.468289
  0
LINE
  8
1
  6
CONTINUOUS
 62
4
 10
86.836259
 20
80.054076
 11
92.836259
 21
86.054076
  0
LINE
  8
1
  6
CONTINUOUS
 62
4
 10
86.836259
 20
78.639862
 11
92.836259
 21
84.639862
  0
LINE
  8
1
  6
CONTINUOUS
 62
4
 10
86.836259
 20
77.225649
 11
92.836259
 21
83.225649
  0
LINE
  8
1
  6
CONTINUOUS
 62
4
 10
86.836259
 20
75.811435
 11
92.836259
 21
81.811435
  0
LINE
  8
1
  6
CONTINUOUS
 62
4
 10
86.836259
 20
74.397222
 11
92.836259
 21
80.397222
  0
LINE
  8
1
  6
CONTINUOUS
 62
4
 10
86.836259
 20
72.983008
 11
92.836259
 21
78.983008
  0
LINE
  8
1
  6
CONTINUOUS
 62
4
 10
86.836259
 20
71.568794
 11
92.836259
 21
77.568794
  0
LINE
  8
1
  6
CONTINUOUS
 62
4
 10
86.836259
 20
70.154581
 11
92.836259
 21
76.154581
  0
LINE
  8
1
  6
CONTINUOUS
 62
4
 10
86.836259
 20
68.740367
 11
92.836259
 21
74.740367
  0
LINE
  8
1
  6
CONTINUOUS
 62
4
 10
86.836259
 20
67.326154
 11
92.836259
 21
73.326154
  0
LINE
  8
1
  6
CONTINUOUS
 62
4
 10
86.836259
 20
65.91194
 11
92.836259
 21
71.91194
  0
LINE
  8
1
  6
CONTINUOUS
 62
4
 10
86.836259
 20
64.497727
 11
92.836259
 21
70.497727
  0
LINE
  8
1
  6
CONTINUOUS
 62
4
 10
87.948957
 20
64.196211
 11
92.836259
 21
69.083513
  0
LINE
  8
1
  6
CONTINUOUS
 62
4
 10
89.363171
 20
64.196211
 11
92.836259
 21
67.6693
  0
LINE
  8
1
  6
CONTINUOUS
 62
4
 10
90.777385
 20
64.196211
 11
92.836259
 21
66.255086
  0
LINE
  8
1
  6
CONTINUOUS
 62
4
 10
92.191598
 20
64.196211
 11
92.836259
 21
64.840872
  0
ENDBLK
  0
BLOCK
  8
1
  2
BLKF026
 70
    0
 10
0
 20
0
 30
0.0
  3
BLKF026
  1

  0
LINE
  8
1
  6
CONTINUOUS
 62
4
 10
107.475653
 20
150.828904
 11
106.937471
 21
150.828904
  0
ENDBLK
  0
BLOCK
  8
1
  2
BLKF025
 70
    0
 10
0
 20
0
 30
0.0
  3
BLKF025
  1

  0
TEXT
  8
1
 62
4
  6
BYLAYER
 62
4
 10
35.902816772461
 20
192.310189843178
 40
3.200000047684
  1
%%c23
  7
Font_0
 50
90
  0
LINE
  8
1
  6
CONTINUOUS
 62
4
 10
36.402817
 20
184.010195
 11
36.402817
 21
207.010195
  0
LINE
  8
1
  6
CONTINUOUS
 62
4
 10
36.402817
 20
184.010195
 11
35.62636
 21
186.907973
  0
LINE
  8
1
  6
CONTINUOUS
 62
4
 10
36.402817
 20
184.010195
 11
37.179274
 21
186.907973
  0
LINE
  8
1
  6
CONTINUOUS
 62
4
 10
36.402817
 20
207.010195
 11
35.62636
 21
204.112418
  0
LINE
  8
1
  6
CONTINUOUS
 62
4
 10
36.402817
 20
207.010195
 11
37.179274
 21
204.112418
  0
LINE
  8
1
  6
CONTINUOUS
 62
4
 10
70.336259
 20
184.010195
 11
35.402817
 21
184.010195
  0
LINE
  8
1
  6
CONTINUOUS
 62
4
 10
70.336259
 20
207.010195
 11
35.402817
 21
207.010195
  0
ENDBLK
  0
BLOCK
  8
1
  2
BLKF024
 70
    0
 10
0
 20
0
 30
0.0
  3
BLKF024
  1

  0
LINE
  8
1
  6
CONTINUOUS
 62
4
 10
120.836259
 20
236.9942
 11
126.086259
 21
242.2442
  0
LINE
  8
1
  6
CONTINUOUS
 62
4
 10
122.250473
 20
236.9942
 11
126.836259
 21
241.579986
  0
LINE
  8
1
  6
CONTINUOUS
 62
4
 10
123.664686
 20
236.9942
 11
126.836259
 21
240.165773
  0
LINE
  8
1
  6
CONTINUOUS
 62
4
 10
125.0789
 20
236.9942
 11
126.836259
 21
238.751559
  0
LINE
  8
1
  6
CONTINUOUS
 62
4
 10
126.493113
 20
236.9942
 11
126.836259
 21
237.337346
  0
LINE
  8
1
  6
CONTINUOUS
 62
4
 10
120.836259
 20
238.408414
 11
124.672046
 21
242.2442
  0
LINE
  8
1
  6
CONTINUOUS
 62
4
 10
120.836259
 20
239.822627
 11
123.257832
 21
242.2442
  0
LINE
  8
1
  6
CONTINUOUS
 62
4
 10
120.836259
 20
241.236841
 11
121.848156
 21
242.248737
  0
ENDBLK
  0
BLOCK
  8
1
  2
BLKF023
 70
    0
 10
0
 20
0
 30
0.0
  3
BLKF023
  1

  0
LINE
  8
1
  6
CONTINUOUS
 62
4
 10
120.836259
 20
238.408414
 11
122.250473
 21
236.9942
  0
LINE
  8
1
  6
CONTINUOUS
 62
4
 10
120.836259
 20
239.822627
 11
123.664686
 21
236.9942
  0
LINE
  8
1
  6
CONTINUOUS
 62
4
 10
120.836259
 20
241.236841
 11
125.0789
 21
236.9942
  0
LINE
  8
1
  6
CONTINUOUS
 62
4
 10
121.243113
 20
242.2442
 11
126.493113
 21
236.9942
  0
LINE
  8
1
  6
CONTINUOUS
 62
4
 10
122.657327
 20
242.2442
 11
126.836259
 21
238.065268
  0
LINE
  8
1
  6
CONTINUOUS
 62
4
 10
124.07154
 20
242.2442
 11
126.836259
 21
239.479481
  0
LINE
  8
1
  6
CONTINUOUS
 62
4
 10
125.485754
 20
242.2442
 11
126.836259
 21
240.893695
  0
ENDBLK
  0
BLOCK
  8
1
  2
BLKF022
 70
    0
 10
0
 20
0
 30
0.0
  3
BLKF022
  1

  0
LINE
  8
1
  6
CONTINUOUS
 62
4
 10
103.836259
 20
236.9942
 11
109.086259
 21
242.2442
  0
LINE
  8
1
  6
CONTINUOUS
 62
4
 10
105.250473
 20
236.9942
 11
109.836259
 21
241.579986
  0
LINE
  8
1
  6
CONTINUOUS
 62
4
 10
106.664686
 20
236.9942
 11
109.836259
 21
240.165773
  0
LINE
  8
1
  6
CONTINUOUS
 62
4
 10
108.0789
 20
236.9942
 11
109.836259
 21
238.751559
  0
LINE
  8
1
  6
CONTINUOUS
 62
4
 10
109.493113
 20
236.9942
 11
109.836259
 21
237.337346
  0
LINE
  8
1
  6
CONTINUOUS
 62
4
 10
103.836259
 20
238.408414
 11
107.672046
 21
242.2442
  0
LINE
  8
1
  6
CONTINUOUS
 62
4
 10
103.836259
 20
239.822627
 11
106.257832
 21
242.2442
  0
LINE
  8
1
  6
CONTINUOUS
 62
4
 10
103.836259
 20
241.236841
 11
104.848156
 21
242.248737
  0
ENDBLK
  0
BLOCK
  8
1
  2
BLKF021
 70
    0
 10
0
 20
0
 30
0.0
  3
BLKF021
  1

  0
LINE
  8
1
  6
CONTINUOUS
 62
4
 10
103.836259
 20
238.408414
 11
105.250473
 21
236.9942
  0
LINE
  8
1
  6
CONTINUOUS
 62
4
 10
103.836259
 20
239.822627
 11
106.664686
 21
236.9942
  0
LINE
  8
1
  6
CONTINUOUS
 62
4
 10
103.836259
 20
241.236841
 11
108.0789
 21
236.9942
  0
LINE
  8
1
  6
CONTINUOUS
 62
4
 10
104.243113
 20
242.2442
 11
109.493113
 21
236.9942
  0
LINE
  8
1
  6
CONTINUOUS
 62
4
 10
105.657327
 20
242.2442
 11
109.836259
 21
238.065268
  0
LINE
  8
1
  6
CONTINUOUS
 62
4
 10
107.07154
 20
242.2442
 11
109.836259
 21
239.479481
  0
LINE
  8
1
  6
CONTINUOUS
 62
4
 10
108.485754
 20
242.2442
 11
109.836259
 21
240.893695
  0
ENDBLK
  0
BLOCK
  8
1
  2
BLKF020
 70
    0
 10
0
 20
0
 30
0.0
  3
BLKF020
  1

  0
LINE
  8
1
  6
CONTINUOUS
 62
4
 10
86.836259
 20
236.9942
 11
92.086259
 21
242.2442
  0
LINE
  8
1
  6
CONTINUOUS
 62
4
 10
88.250473
 20
236.9942
 11
92.836259
 21
241.579986
  0
LINE
  8
1
  6
CONTINUOUS
 62
4
 10
89.664686
 20
236.9942
 11
92.836259
 21
240.165773
  0
LINE
  8
1
  6
CONTINUOUS
 62
4
 10
91.0789
 20
236.9942
 11
92.836259
 21
238.751559
  0
LINE
  8
1
  6
CONTINUOUS
 62
4
 10
92.493113
 20
236.9942
 11
92.836259
 21
237.337346
  0
LINE
  8
1
  6
CONTINUOUS
 62
4
 10
86.836259
 20
238.408414
 11
90.672046
 21
242.2442
  0
LINE
  8
1
  6
CONTINUOUS
 62
4
 10
86.836259
 20
239.822627
 11
89.257832
 21
242.2442
  0
LINE
  8
1
  6
CONTINUOUS
 62
4
 10
86.836259
 20
241.236841
 11
87.848156
 21
242.248737
  0
ENDBLK
  0
BLOCK
  8
1
  2
BLKF019
 70
    0
 10
0
 20
0
 30
0.0
  3
BLKF019
  1

  0
LINE
  8
1
  6
CONTINUOUS
 62
4
 10
86.836259
 20
238.408414
 11
88.250473
 21
236.9942
  0
LINE
  8
1
  6
CONTINUOUS
 62
4
 10
86.836259
 20
239.822627
 11
89.664686
 21
236.9942
  0
LINE
  8
1
  6
CONTINUOUS
 62
4
 10
86.836259
 20
241.236841
 11
91.0789
 21
236.9942
  0
LINE
  8
1
  6
CONTINUOUS
 62
4
 10
87.176554
 20
242.310759
 11
92.493113
 21
236.9942
  0
LINE
  8
1
  6
CONTINUOUS
 62
4
 10
88.657327
 20
242.2442
 11
92.836259
 21
238.065268
  0
LINE
  8
1
  6
CONTINUOUS
 62
4
 10
90.07154
 20
242.2442
 11
92.836259
 21
239.479481
  0
LINE
  8
1
  6
CONTINUOUS
 62
4
 10
91.485754
 20
242.2442
 11
92.836259
 21
240.893695
  0
ENDBLK
  0
BLOCK
  8
1
  2
BLKF018
 70
    0
 10
0
 20
0
 30
0.0
  3
BLKF018
  1

  0
LINE
  8
1
  6
CONTINUOUS
 62
4
 10
120.836259
 20
259.9942
 11
126.086259
 21
254.7442
  0
LINE
  8
1
  6
CONTINUOUS
 62
4
 10
122.250473
 20
259.9942
 11
126.836259
 21
255.408414
  0
LINE
  8
1
  6
CONTINUOUS
 62
4
 10
123.664686
 20
259.9942
 11
126.836259
 21
256.822627
  0
LINE
  8
1
  6
CONTINUOUS
 62
4
 10
125.0789
 20
259.9942
 11
126.836259
 21
258.236841
  0
LINE
  8
1
  6
CONTINUOUS
 62
4
 10
126.493113
 20
259.9942
 11
126.836259
 21
259.651054
  0
LINE
  8
1
  6
CONTINUOUS
 62
4
 10
120.836259
 20
258.579986
 11
124.672046
 21
254.7442
  0
LINE
  8
1
  6
CONTINUOUS
 62
4
 10
120.836259
 20
257.165773
 11
123.257832
 21
254.7442
  0
LINE
  8
1
  6
CONTINUOUS
 62
4
 10
120.836259
 20
255.751559
 11
121.848156
 21
254.739663
  0
ENDBLK
  0
BLOCK
  8
1
  2
BLKF017
 70
    0
 10
0
 20
0
 30
0.0
  3
BLKF017
  1

  0
LINE
  8
1
  6
CONTINUOUS
 62
4
 10
120.836259
 20
258.579986
 11
122.250473
 21
259.9942
  0
LINE
  8
1
  6
CONTINUOUS
 62
4
 10
120.836259
 20
257.165773
 11
123.664686
 21
259.9942
  0
LINE
  8
1
  6
CONTINUOUS
 62
4
 10
120.836259
 20
255.751559
 11
125.0789
 21
259.9942
  0
LINE
  8
1
  6
CONTINUOUS
 62
4
 10
121.243113
 20
254.7442
 11
126.493113
 21
259.9942
  0
LINE
  8
1
  6
CONTINUOUS
 62
4
 10
122.657327
 20
254.7442
 11
126.836259
 21
258.923132
  0
LINE
  8
1
  6
CONTINUOUS
 62
4
 10
124.07154
 20
254.7442
 11
126.836259
 21
257.508919
  0
LINE
  8
1
  6
CONTINUOUS
 62
4
 10
125.485754
 20
254.7442
 11
126.836259
 21
256.094705
  0
ENDBLK
  0
BLOCK
  8
1
  2
BLKF016
 70
    0
 10
0
 20
0
 30
0.0
  3
BLKF016
  1

  0
LINE
  8
1
  6
CONTINUOUS
 62
4
 10
103.836259
 20
259.9942
 11
109.086259
 21
254.7442
  0
LINE
  8
1
  6
CONTINUOUS
 62
4
 10
105.250473
 20
259.9942
 11
109.836259
 21
255.408414
  0
LINE
  8
1
  6
CONTINUOUS
 62
4
 10
106.664686
 20
259.9942
 11
109.836259
 21
256.822627
  0
LINE
  8
1
  6
CONTINUOUS
 62
4
 10
108.0789
 20
259.9942
 11
109.836259
 21
258.236841
  0
LINE
  8
1
  6
CONTINUOUS
 62
4
 10
109.493113
 20
259.9942
 11
109.836259
 21
259.651054
  0
LINE
  8
1
  6
CONTINUOUS
 62
4
 10
103.836259
 20
258.579986
 11
107.672046
 21
254.7442
  0
LINE
  8
1
  6
CONTINUOUS
 62
4
 10
103.836259
 20
257.165773
 11
106.257832
 21
254.7442
  0
LINE
  8
1
  6
CONTINUOUS
 62
4
 10
103.836259
 20
255.751559
 11
104.848156
 21
254.739663
  0
ENDBLK
  0
BLOCK
  8
1
  2
BLKF015
 70
    0
 10
0
 20
0
 30
0.0
  3
BLKF015
  1

  0
LINE
  8
1
  6
CONTINUOUS
 62
4
 10
103.836259
 20
258.579986
 11
105.250473
 21
259.9942
  0
LINE
  8
1
  6
CONTINUOUS
 62
4
 10
103.836259
 20
257.165773
 11
106.664686
 21
259.9942
  0
LINE
  8
1
  6
CONTINUOUS
 62
4
 10
103.836259
 20
255.751559
 11
108.0789
 21
259.9942
  0
LINE
  8
1
  6
CONTINUOUS
 62
4
 10
104.243113
 20
254.7442
 11
109.493113
 21
259.9942
  0
LINE
  8
1
  6
CONTINUOUS
 62
4
 10
105.657327
 20
254.7442
 11
109.836259
 21
258.923132
  0
LINE
  8
1
  6
CONTINUOUS
 62
4
 10
107.07154
 20
254.7442
 11
109.836259
 21
257.508919
  0
LINE
  8
1
  6
CONTINUOUS
 62
4
 10
108.485754
 20
254.7442
 11
109.836259
 21
256.094705
  0
ENDBLK
  0
BLOCK
  8
1
  2
BLKF014
 70
    0
 10
0
 20
0
 30
0.0
  3
BLKF014
  1

  0
LINE
  8
1
  6
CONTINUOUS
 62
4
 10
86.836259
 20
259.9942
 11
92.086259
 21
254.7442
  0
LINE
  8
1
  6
CONTINUOUS
 62
4
 10
88.250473
 20
259.9942
 11
92.836259
 21
255.408414
  0
LINE
  8
1
  6
CONTINUOUS
 62
4
 10
89.664686
 20
259.9942
 11
92.836259
 21
256.822627
  0
LINE
  8
1
  6
CONTINUOUS
 62
4
 10
91.0789
 20
259.9942
 11
92.836259
 21
258.236841
  0
LINE
  8
1
  6
CONTINUOUS
 62
4
 10
92.493113
 20
259.9942
 11
92.836259
 21
259.651054
  0
LINE
  8
1
  6
CONTINUOUS
 62
4
 10
86.836259
 20
258.579986
 11
90.672046
 21
254.7442
  0
LINE
  8
1
  6
CONTINUOUS
 62
4
 10
86.836259
 20
257.165773
 11
89.257832
 21
254.7442
  0
LINE
  8
1
  6
CONTINUOUS
 62
4
 10
86.836259
 20
255.751559
 11
87.848156
 21
254.739663
  0
ENDBLK
  0
BLOCK
  8
1
  2
BLKF013
 70
    0
 10
0
 20
0
 30
0.0
  3
BLKF013
  1

  0
LINE
  8
1
  6
CONTINUOUS
 62
4
 10
86.836259
 20
258.579986
 11
88.250473
 21
259.9942
  0
LINE
  8
1
  6
CONTINUOUS
 62
4
 10
86.836259
 20
257.165773
 11
89.664686
 21
259.9942
  0
LINE
  8
1
  6
CONTINUOUS
 62
4
 10
86.836259
 20
255.751559
 11
91.0789
 21
259.9942
  0
LINE
  8
1
  6
CONTINUOUS
 62
4
 10
87.176554
 20
254.67764
 11
92.493113
 21
259.9942
  0
LINE
  8
1
  6
CONTINUOUS
 62
4
 10
88.657327
 20
254.7442
 11
92.836259
 21
258.923132
  0
LINE
  8
1
  6
CONTINUOUS
 62
4
 10
90.07154
 20
254.7442
 11
92.836259
 21
257.508919
  0
LINE
  8
1
  6
CONTINUOUS
 62
4
 10
91.485754
 20
254.7442
 11
92.836259
 21
256.094705
  0
ENDBLK
  0
BLOCK
  8
1
  2
BLKF012
 70
    0
 10
0
 20
0
 30
0.0
  3
BLKF012
  1

  0
TEXT
  8
1
 62
4
  6
BYLAYER
 62
4
 10
102.23626101017
 20
266.248352050781
 40
3.200000047684
  1
68
  7
Font_0
  0
LINE
  8
1
  6
CONTINUOUS
 62
4
 10
69.836259
 20
265.748346
 11
137.836259
 21
265.748346
  0
LINE
  8
1
  6
CONTINUOUS
 62
4
 10
69.836259
 20
265.748346
 11
72.734037
 21
266.524803
  0
LINE
  8
1
  6
CONTINUOUS
 62
4
 10
69.836259
 20
265.748346
 11
72.734037
 21
264.971889
  0
LINE
  8
1
  6
CONTINUOUS
 62
4
 10
137.836259
 20
265.748346
 11
134.938482
 21
266.524803
  0
LINE
  8
1
  6
CONTINUOUS
 62
4
 10
137.836259
 20
265.748346
 11
134.938482
 21
264.971889
  0
LINE
  8
1
  6
CONTINUOUS
 62
4
 10
69.836259
 20
260.9942
 11
69.836259
 21
266.748346
  0
LINE
  8
1
  6
CONTINUOUS
 62
4
 10
137.836259
 20
260.9942
 11
137.836259
 21
266.748346
  0
ENDBLK
  0
BLOCK
  8
1
  2
BLKF011
 70
    0
 10
0
 20
0
 30
0.0
  3
BLKF011
  1

  0
TEXT
  8
1
 62
4
  6
BYLAYER
 62
4
 10
51.376259469986
 20
266.248352050781
 40
3.200000047684
  1
7
  7
Font_0
  0
LINE
  8
1
  6
CONTINUOUS
 62
4
 10
48.836259
 20
265.748346
 11
55.836259
 21
265.748346
  0
LINE
  8
1
  6
CONTINUOUS
 62
4
 10
48.836259
 20
265.748346
 11
51.734037
 21
266.524803
  0
LINE
  8
1
  6
CONTINUOUS
 62
4
 10
48.836259
 20
265.748346
 11
51.734037
 21
264.971889
  0
LINE
  8
1
  6
CONTINUOUS
 62
4
 10
55.836259
 20
265.748346
 11
52.938482
 21
266.524803
  0
LINE
  8
1
  6
CONTINUOUS
 62
4
 10
55.836259
 20
265.748346
 11
52.938482
 21
264.971889
  0
LINE
  8
1
  6
CONTINUOUS
 62
4
 10
55.836259
 20
261.115055
 11
55.836259
 21
266.748346
  0
ENDBLK
  0
BLOCK
  8
1
  2
BLKF010
 70
    0
 10
0
 20
0
 30
0.0
  3
BLKF010
  1

  0
TEXT
  8
1
 62
4
  6
BYLAYER
 62
4
 10
91.73626101017
 20
272.248352050781
 40
3.200000047684
  1
89
  7
Font_0
  0
LINE
  8
1
  6
CONTINUOUS
 62
4
 10
48.836259
 20
271.748346
 11
137.836259
 21
271.748346
  0
LINE
  8
1
  6
CONTINUOUS
 62
4
 10
48.836259
 20
271.748346
 11
51.734037
 21
272.524803
  0
LINE
  8
1
  6
CONTINUOUS
 62
4
 10
48.836259
 20
271.748346
 11
51.734037
 21
270.971889
  0
LINE
  8
1
  6
CONTINUOUS
 62
4
 10
137.836259
 20
271.748346
 11
134.938482
 21
272.524803
  0
LINE
  8
1
  6
CONTINUOUS
 62
4
 10
137.836259
 20
271.748346
 11
134.938482
 21
270.971889
  0
LINE
  8
1
  6
CONTINUOUS
 62
4
 10
48.836259
 20
254.4942
 11
48.836259
 21
272.748346
  0
LINE
  8
1
  6
CONTINUOUS
 62
4
 10
137.836259
 20
260.9942
 11
137.836259
 21
272.748346
  0
ENDBLK
  0
BLOCK
  8
1
  2
BLKF009
 70
    0
 10
0
 20
0
 30
0.0
  3
BLKF009
  1

  0
TEXT
  8
1
 62
4
  6
BYLAYER
 62
4
 10
41.902816772461
 20
247.534180307388
 40
3.200000047684
  1
7
  7
Font_0
 50
90
  0
LINE
  8
1
  6
CONTINUOUS
 62
4
 10
42.402817
 20
244.9942
 11
42.402817
 21
251.9942
  0
LINE
  8
1
  6
CONTINUOUS
 62
4
 10
42.402817
 20
244.9942
 11
41.62636
 21
247.891977
  0
LINE
  8
1
  6
CONTINUOUS
 62
4
 10
42.402817
 20
244.9942
 11
43.179274
 21
247.891977
  0
LINE
  8
1
  6
CONTINUOUS
 62
4
 10
42.402817
 20
251.9942
 11
41.62636
 21
249.096422
  0
LINE
  8
1
  6
CONTINUOUS
 62
4
 10
42.402817
 20
251.9942
 11
43.179274
 21
249.096422
  0
LINE
  8
1
  6
CONTINUOUS
 62
4
 10
47.836259
 20
244.9942
 11
41.402817
 21
244.9942
  0
LINE
  8
1
  6
CONTINUOUS
 62
4
 10
47.836259
 20
251.9942
 11
41.402817
 21
251.9942
  0
ENDBLK
  0
BLOCK
  8
1
  2
BLKF008
 70
    0
 10
0
 20
0
 30
0.0
  3
BLKF008
  1

  0
TEXT
  8
1
 62
4
  6
BYLAYER
 62
4
 10
35.902816772461
 20
246.894189476967
 40
3.200000047684
  1
14
  7
Font_0
 50
90
  0
LINE
  8
1
  6
CONTINUOUS
 62
4
 10
36.402817
 20
241.4942
 11
36.402817
 21
255.4942
  0
LINE
  8
1
  6
CONTINUOUS
 62
4
 10
36.402817
 20
241.4942
 11
35.62636
 21
244.391977
  0
LINE
  8
1
  6
CONTINUOUS
 62
4
 10
36.402817
 20
241.4942
 11
37.179274
 21
244.391977
  0
LINE
  8
1
  6
CONTINUOUS
 62
4
 10
36.402817
 20
255.4942
 11
35.62636
 21
252.596422
  0
LINE
  8
1
  6
CONTINUOUS
 62
4
 10
36.402817
 20
255.4942
 11
37.179274
 21
252.596422
  0
LINE
  8
1
  6
CONTINUOUS
 62
4
 10
49.836259
 20
241.4942
 11
35.402817
 21
241.4942
  0
LINE
  8
1
  6
CONTINUOUS
 62
4
 10
49.836259
 20
255.4942
 11
35.402817
 21
255.4942
  0
ENDBLK
  0
BLOCK
  8
1
  2
BLKF007
 70
    0
 10
0
 20
0
 30
0.0
  3
BLKF007
  1

  0
TEXT
  8
1
 62
4
  6
BYLAYER
 62
4
 10
51.376259469986
 20
220.295974731445
 40
3.200000047684
  1
7
  7
Font_0
  0
LINE
  8
1
  6
CONTINUOUS
 62
4
 10
48.836259
 20
219.795977
 11
55.836259
 21
219.795977
  0
LINE
  8
1
  6
CONTINUOUS
 62
4
 10
48.836259
 20
219.795977
 11
51.734037
 21
220.572435
  0
LINE
  8
1
  6
CONTINUOUS
 62
4
 10
48.836259
 20
219.795977
 11
51.734037
 21
219.01952
  0
LINE
  8
1
  6
CONTINUOUS
 62
4
 10
55.836259
 20
219.795977
 11
52.938482
 21
220.572435
  0
LINE
  8
1
  6
CONTINUOUS
 62
4
 10
55.836259
 20
219.795977
 11
52.938482
 21
219.01952
  0
LINE
  8
1
  6
CONTINUOUS
 62
4
 10
55.836259
 20
202.397374
 11
55.836259
 21
220.795977
  0
ENDBLK
  0
BLOCK
  8
1
  2
BLKF006
 70
    0
 10
0
 20
0
 30
0.0
  3
BLKF006
  1

  0
TEXT
  8
1
 62
4
  6
BYLAYER
 62
4
 10
101.636254906654
 20
226.295974731445
 40
3.200000047684
  1
112
  7
Font_0
  0
LINE
  8
1
  6
CONTINUOUS
 62
4
 10
48.836259
 20
225.795977
 11
160.836259
 21
225.795977
  0
LINE
  8
1
  6
CONTINUOUS
 62
4
 10
48.836259
 20
225.795977
 11
51.734037
 21
226.572435
  0
LINE
  8
1
  6
CONTINUOUS
 62
4
 10
48.836259
 20
225.795977
 11
51.734037
 21
225.01952
  0
LINE
  8
1
  6
CONTINUOUS
 62
4
 10
160.836259
 20
225.795977
 11
157.938482
 21
226.572435
  0
LINE
  8
1
  6
CONTINUOUS
 62
4
 10
160.836259
 20
225.795977
 11
157.938482
 21
225.01952
  0
LINE
  8
1
  6
CONTINUOUS
 62
4
 10
48.836259
 20
199.956324
 11
48.836259
 21
226.795977
  0
LINE
  8
1
  6
CONTINUOUS
 62
4
 10
160.836259
 20
203.52172
 11
160.836259
 21
226.795977
  0
ENDBLK
  0
BLOCK
  8
1
  2
BLKF005
 70
    0
 10
0
 20
0
 30
0.0
  3
BLKF005
  1

  0
LINE
  8
1
  6
CONTINUOUS
 62
4
 10
86.836259
 20
207.010195
 11
92.836259
 21
201.010195
  0
LINE
  8
1
  6
CONTINUOUS
 62
4
 10
88.250473
 20
207.010195
 11
92.836259
 21
202.424409
  0
LINE
  8
1
  6
CONTINUOUS
 62
4
 10
89.664686
 20
207.010195
 11
92.836259
 21
203.838622
  0
LINE
  8
1
  6
CONTINUOUS
 62
4
 10
91.0789
 20
207.010195
 11
92.836259
 21
205.252836
  0
LINE
  8
1
  6
CONTINUOUS
 62
4
 10
92.493113
 20
207.010195
 11
92.836259
 21
206.667049
  0
LINE
  8
1
  6
CONTINUOUS
 62
4
 10
86.836259
 20
205.595982
 11
92.836259
 21
199.595982
  0
LINE
  8
1
  6
CONTINUOUS
 62
4
 10
86.836259
 20
204.181768
 11
92.836259
 21
198.181768
  0
LINE
  8
1
  6
CONTINUOUS
 62
4
 10
86.836259
 20
202.767554
 11
92.836259
 21
196.767554
  0
LINE
  8
1
  6
CONTINUOUS
 62
4
 10
86.836259
 20
201.353341
 11
92.836259
 21
195.353341
  0
LINE
  8
1
  6
CONTINUOUS
 62
4
 10
86.836259
 20
199.939127
 11
92.836259
 21
193.939127
  0
LINE
  8
1
  6
CONTINUOUS
 62
4
 10
86.836259
 20
198.524914
 11
92.836259
 21
192.524914
  0
LINE
  8
1
  6
CONTINUOUS
 62
4
 10
86.836259
 20
197.1107
 11
92.836259
 21
191.1107
  0
LINE
  8
1
  6
CONTINUOUS
 62
4
 10
86.836259
 20
195.696487
 11
92.836259
 21
189.696487
  0
LINE
  8
1
  6
CONTINUOUS
 62
4
 10
86.836259
 20
194.282273
 11
92.836259
 21
188.282273
  0
LINE
  8
1
  6
CONTINUOUS
 62
4
 10
86.836259
 20
192.868059
 11
92.836259
 21
186.868059
  0
LINE
  8
1
  6
CONTINUOUS
 62
4
 10
86.836259
 20
191.453846
 11
92.836259
 21
185.453846
  0
LINE
  8
1
  6
CONTINUOUS
 62
4
 10
86.836259
 20
190.039632
 11
92.836259
 21
184.039632
  0
LINE
  8
1
  6
CONTINUOUS
 62
4
 10
86.836259
 20
188.625419
 11
91.451483
 21
184.010195
  0
LINE
  8
1
  6
CONTINUOUS
 62
4
 10
86.836259
 20
187.211205
 11
90.037269
 21
184.010195
  0
LINE
  8
1
  6
CONTINUOUS
 62
4
 10
86.836259
 20
185.796992
 11
88.623056
 21
184.010195
  0
LINE
  8
1
  6
CONTINUOUS
 62
4
 10
86.836259
 20
184.382778
 11
87.208842
 21
184.010195
  0
ENDBLK
  0
BLOCK
  8
1
  2
BLKF004
 70
    0
 10
0
 20
0
 30
0.0
  3
BLKF004
  1

  0
LINE
  8
1
  6
CONTINUOUS
 62
4
 10
86.836259
 20
205.595982
 11
88.250473
 21
207.010195
  0
LINE
  8
1
  6
CONTINUOUS
 62
4
 10
86.836259
 20
204.181768
 11
89.664686
 21
207.010195
  0
LINE
  8
1
  6
CONTINUOUS
 62
4
 10
86.836259
 20
202.767554
 11
91.0789
 21
207.010195
  0
LINE
  8
1
  6
CONTINUOUS
 62
4
 10
86.836259
 20
201.353341
 11
92.493113
 21
207.010195
  0
LINE
  8
1
  6
CONTINUOUS
 62
4
 10
86.836259
 20
199.939127
 11
92.836259
 21
205.939127
  0
LINE
  8
1
  6
CONTINUOUS
 62
4
 10
86.836259
 20
198.524914
 11
92.836259
 21
204.524914
  0
LINE
  8
1
  6
CONTINUOUS
 62
4
 10
86.836259
 20
197.1107
 11
92.836259
 21
203.1107
  0
LINE
  8
1
  6
CONTINUOUS
 62
4
 10
86.836259
 20
195.696487
 11
92.836259
 21
201.696487
  0
LINE
  8
1
  6
CONTINUOUS
 62
4
 10
86.836259
 20
194.282273
 11
92.836259
 21
200.282273
  0
LINE
  8
1
  6
CONTINUOUS
 62
4
 10
86.836259
 20
192.868059
 11
92.836259
 21
198.868059
  0
LINE
  8
1
  6
CONTINUOUS
 62
4
 10
86.836259
 20
191.453846
 11
92.836259
 21
197.453846
  0
LINE
  8
1
  6
CONTINUOUS
 62
4
 10
86.836259
 20
190.039632
 11
92.836259
 21
196.039632
  0
LINE
  8
1
  6
CONTINUOUS
 62
4
 10
86.836259
 20
188.625419
 11
92.836259
 21
194.625419
  0
LINE
  8
1
  6
CONTINUOUS
 62
4
 10
86.836259
 20
187.211205
 11
92.836259
 21
193.211205
  0
LINE
  8
1
  6
CONTINUOUS
 62
4
 10
86.836259
 20
185.796992
 11
92.836259
 21
191.796992
  0
LINE
  8
1
  6
CONTINUOUS
 62
4
 10
86.836259
 20
184.382778
 11
92.836259
 21
190.382778
  0
LINE
  8
1
  6
CONTINUOUS
 62
4
 10
87.87789
 20
184.010195
 11
92.836259
 21
188.968565
  0
LINE
  8
1
  6
CONTINUOUS
 62
4
 10
89.292103
 20
184.010195
 11
92.836259
 21
187.554351
  0
LINE
  8
1
  6
CONTINUOUS
 62
4
 10
90.706317
 20
184.010195
 11
92.836259
 21
186.140137
  0
LINE
  8
1
  6
CONTINUOUS
 62
4
 10
92.12053
 20
184.010195
 11
92.836259
 21
184.725924
  0
ENDBLK
  0
BLOCK
  8
1
  2
BLKF003
 70
    0
 10
0
 20
0
 30
0.0
  3
BLKF003
  1

  0
LINE
  8
1
  6
CONTINUOUS
 62
4
 10
103.836259
 20
207.010195
 11
109.836259
 21
201.010195
  0
LINE
  8
1
  6
CONTINUOUS
 62
4
 10
105.250473
 20
207.010195
 11
109.836259
 21
202.424409
  0
LINE
  8
1
  6
CONTINUOUS
 62
4
 10
106.664686
 20
207.010195
 11
109.836259
 21
203.838622
  0
LINE
  8
1
  6
CONTINUOUS
 62
4
 10
108.0789
 20
207.010195
 11
109.836259
 21
205.252836
  0
LINE
  8
1
  6
CONTINUOUS
 62
4
 10
109.493113
 20
207.010195
 11
109.836259
 21
206.667049
  0
LINE
  8
1
  6
CONTINUOUS
 62
4
 10
103.836259
 20
205.595982
 11
109.836259
 21
199.595982
  0
LINE
  8
1
  6
CONTINUOUS
 62
4
 10
103.836259
 20
204.181768
 11
109.836259
 21
198.181768
  0
LINE
  8
1
  6
CONTINUOUS
 62
4
 10
103.836259
 20
202.767554
 11
109.836259
 21
196.767554
  0
LINE
  8
1
  6
CONTINUOUS
 62
4
 10
103.836259
 20
201.353341
 11
109.836259
 21
195.353341
  0
LINE
  8
1
  6
CONTINUOUS
 62
4
 10
103.836259
 20
199.939127
 11
109.836259
 21
193.939127
  0
LINE
  8
1
  6
CONTINUOUS
 62
4
 10
103.836259
 20
198.524914
 11
109.836259
 21
192.524914
  0
LINE
  8
1
  6
CONTINUOUS
 62
4
 10
103.836259
 20
197.1107
 11
109.836259
 21
191.1107
  0
LINE
  8
1
  6
CONTINUOUS
 62
4
 10
103.836259
 20
195.696487
 11
109.836259
 21
189.696487
  0
LINE
  8
1
  6
CONTINUOUS
 62
4
 10
103.836259
 20
194.282273
 11
109.836259
 21
188.282273
  0
LINE
  8
1
  6
CONTINUOUS
 62
4
 10
103.836259
 20
192.868059
 11
109.836259
 21
186.868059
  0
LINE
  8
1
  6
CONTINUOUS
 62
4
 10
103.836259
 20
191.453846
 11
109.836259
 21
185.453846
  0
LINE
  8
1
  6
CONTINUOUS
 62
4
 10
103.836259
 20
190.039632
 11
109.836259
 21
184.039632
  0
LINE
  8
1
  6
CONTINUOUS
 62
4
 10
103.836259
 20
188.625419
 11
108.451483
 21
184.010195
  0
LINE
  8
1
  6
CONTINUOUS
 62
4
 10
103.836259
 20
187.211205
 11
107.037269
 21
184.010195
  0
LINE
  8
1
  6
CONTINUOUS
 62
4
 10
103.836259
 20
185.796992
 11
105.623056
 21
184.010195
  0
LINE
  8
1
  6
CONTINUOUS
 62
4
 10
103.836259
 20
184.382778
 11
104.208842
 21
184.010195
  0
ENDBLK
  0
BLOCK
  8
1
  2
BLKF002
 70
    0
 10
0
 20
0
 30
0.0
  3
BLKF002
  1

  0
LINE
  8
1
  6
CONTINUOUS
 62
4
 10
103.836259
 20
205.595982
 11
105.250473
 21
207.010195
  0
LINE
  8
1
  6
CONTINUOUS
 62
4
 10
103.836259
 20
204.181768
 11
106.664686
 21
207.010195
  0
LINE
  8
1
  6
CONTINUOUS
 62
4
 10
103.836259
 20
202.767554
 11
108.0789
 21
207.010195
  0
LINE
  8
1
  6
CONTINUOUS
 62
4
 10
103.836259
 20
201.353341
 11
109.493113
 21
207.010195
  0
LINE
  8
1
  6
CONTINUOUS
 62
4
 10
103.836259
 20
199.939127
 11
109.836259
 21
205.939127
  0
LINE
  8
1
  6
CONTINUOUS
 62
4
 10
103.836259
 20
198.524914
 11
109.836259
 21
204.524914
  0
LINE
  8
1
  6
CONTINUOUS
 62
4
 10
103.836259
 20
197.1107
 11
109.836259
 21
203.1107
  0
LINE
  8
1
  6
CONTINUOUS
 62
4
 10
103.836259
 20
195.696487
 11
109.836259
 21
201.696487
  0
LINE
  8
1
  6
CONTINUOUS
 62
4
 10
103.836259
 20
194.282273
 11
109.836259
 21
200.282273
  0
LINE
  8
1
  6
CONTINUOUS
 62
4
 10
103.836259
 20
192.868059
 11
109.836259
 21
198.868059
  0
LINE
  8
1
  6
CONTINUOUS
 62
4
 10
103.836259
 20
191.453846
 11
109.836259
 21
197.453846
  0
LINE
  8
1
  6
CONTINUOUS
 62
4
 10
103.836259
 20
190.039632
 11
109.836259
 21
196.039632
  0
LINE
  8
1
  6
CONTINUOUS
 62
4
 10
103.836259
 20
188.625419
 11
109.836259
 21
194.625419
  0
LINE
  8
1
  6
CONTINUOUS
 62
4
 10
103.836259
 20
187.211205
 11
109.836259
 21
193.211205
  0
LINE
  8
1
  6
CONTINUOUS
 62
4
 10
103.836259
 20
185.796992
 11
109.836259
 21
191.796992
  0
LINE
  8
1
  6
CONTINUOUS
 62
4
 10
103.836259
 20
184.382778
 11
109.836259
 21
190.382778
  0
LINE
  8
1
  6
CONTINUOUS
 62
4
 10
104.87789
 20
184.010195
 11
109.836259
 21
188.968565
  0
LINE
  8
1
  6
CONTINUOUS
 62
4
 10
106.292103
 20
184.010195
 11
109.836259
 21
187.554351
  0
LINE
  8
1
  6
CONTINUOUS
 62
4
 10
107.706317
 20
184.010195
 11
109.836259
 21
186.140137
  0
LINE
  8
1
  6
CONTINUOUS
 62
4
 10
109.12053
 20
184.010195
 11
109.836259
 21
184.725924
  0
ENDBLK
  0
BLOCK
  8
1
  2
BLKF001
 70
    0
 10
0
 20
0
 30
0.0
  3
BLKF001
  1

  0
LINE
  8
1
  6
CONTINUOUS
 62
4
 10
120.836259
 20
207.010195
 11
126.836259
 21
201.010195
  0
LINE
  8
1
  6
CONTINUOUS
 62
4
 10
122.250473
 20
207.010195
 11
126.836259
 21
202.424409
  0
LINE
  8
1
  6
CONTINUOUS
 62
4
 10
123.664686
 20
207.010195
 11
126.836259
 21
203.838622
  0
LINE
  8
1
  6
CONTINUOUS
 62
4
 10
125.0789
 20
207.010195
 11
126.836259
 21
205.252836
  0
LINE
  8
1
  6
CONTINUOUS
 62
4
 10
126.493113
 20
207.010195
 11
126.836259
 21
206.667049
  0
LINE
  8
1
  6
CONTINUOUS
 62
4
 10
120.836259
 20
205.595982
 11
126.836259
 21
199.595982
  0
LINE
  8
1
  6
CONTINUOUS
 62
4
 10
120.836259
 20
204.181768
 11
126.836259
 21
198.181768
  0
LINE
  8
1
  6
CONTINUOUS
 62
4
 10
120.836259
 20
202.767554
 11
126.836259
 21
196.767554
  0
LINE
  8
1
  6
CONTINUOUS
 62
4
 10
120.836259
 20
201.353341
 11
126.836259
 21
195.353341
  0
LINE
  8
1
  6
CONTINUOUS
 62
4
 10
120.836259
 20
199.939127
 11
126.836259
 21
193.939127
  0
LINE
  8
1
  6
CONTINUOUS
 62
4
 10
120.836259
 20
198.524914
 11
126.836259
 21
192.524914
  0
LINE
  8
1
  6
CONTINUOUS
 62
4
 10
120.836259
 20
197.1107
 11
126.836259
 21
191.1107
  0
LINE
  8
1
  6
CONTINUOUS
 62
4
 10
120.836259
 20
195.696487
 11
126.836259
 21
189.696487
  0
LINE
  8
1
  6
CONTINUOUS
 62
4
 10
120.836259
 20
194.282273
 11
126.836259
 21
188.282273
  0
LINE
  8
1
  6
CONTINUOUS
 62
4
 10
120.836259
 20
192.868059
 11
126.836259
 21
186.868059
  0
LINE
  8
1
  6
CONTINUOUS
 62
4
 10
120.836259
 20
191.453846
 11
126.836259
 21
185.453846
  0
LINE
  8
1
  6
CONTINUOUS
 62
4
 10
120.836259
 20
190.039632
 11
126.836259
 21
184.039632
  0
LINE
  8
1
  6
CONTINUOUS
 62
4
 10
120.836259
 20
188.625419
 11
125.451483
 21
184.010195
  0
LINE
  8
1
  6
CONTINUOUS
 62
4
 10
120.836259
 20
187.211205
 11
124.037269
 21
184.010195
  0
LINE
  8
1
  6
CONTINUOUS
 62
4
 10
120.836259
 20
185.796992
 11
122.623056
 21
184.010195
  0
LINE
  8
1
  6
CONTINUOUS
 62
4
 10
120.836259
 20
184.382778
 11
121.208842
 21
184.010195
  0
ENDBLK
  0
BLOCK
  8
1
  2
BLKF000
 70
    0
 10
0
 20
0
 30
0.0
  3
BLKF000
  1

  0
LINE
  8
1
  6
CONTINUOUS
 62
4
 10
120.836259
 20
205.595982
 11
122.250473
 21
207.010195
  0
LINE
  8
1
  6
CONTINUOUS
 62
4
 10
120.836259
 20
204.181768
 11
123.664686
 21
207.010195
  0
LINE
  8
1
  6
CONTINUOUS
 62
4
 10
120.836259
 20
202.767554
 11
125.0789
 21
207.010195
  0
LINE
  8
1
  6
CONTINUOUS
 62
4
 10
120.836259
 20
201.353341
 11
126.493113
 21
207.010195
  0
LINE
  8
1
  6
CONTINUOUS
 62
4
 10
120.836259
 20
199.939127
 11
126.836259
 21
205.939127
  0
LINE
  8
1
  6
CONTINUOUS
 62
4
 10
120.836259
 20
198.524914
 11
126.836259
 21
204.524914
  0
LINE
  8
1
  6
CONTINUOUS
 62
4
 10
120.836259
 20
197.1107
 11
126.836259
 21
203.1107
  0
LINE
  8
1
  6
CONTINUOUS
 62
4
 10
120.836259
 20
195.696487
 11
126.836259
 21
201.696487
  0
LINE
  8
1
  6
CONTINUOUS
 62
4
 10
120.836259
 20
194.282273
 11
126.836259
 21
200.282273
  0
LINE
  8
1
  6
CONTINUOUS
 62
4
 10
120.836259
 20
192.868059
 11
126.836259
 21
198.868059
  0
LINE
  8
1
  6
CONTINUOUS
 62
4
 10
120.836259
 20
191.453846
 11
126.836259
 21
197.453846
  0
LINE
  8
1
  6
CONTINUOUS
 62
4
 10
120.836259
 20
190.039632
 11
126.836259
 21
196.039632
  0
LINE
  8
1
  6
CONTINUOUS
 62
4
 10
120.836259
 20
188.625419
 11
126.836259
 21
194.625419
  0
LINE
  8
1
  6
CONTINUOUS
 62
4
 10
120.836259
 20
187.211205
 11
126.836259
 21
193.211205
  0
LINE
  8
1
  6
CONTINUOUS
 62
4
 10
120.836259
 20
185.796992
 11
126.836259
 21
191.796992
  0
LINE
  8
1
  6
CONTINUOUS
 62
4
 10
120.836259
 20
184.382778
 11
126.836259
 21
190.382778
  0
LINE
  8
1
  6
CONTINUOUS
 62
4
 10
121.87789
 20
184.010195
 11
126.836259
 21
188.968565
  0
LINE
  8
1
  6
CONTINUOUS
 62
4
 10
123.292103
 20
184.010195
 11
126.836259
 21
187.554351
  0
LINE
  8
1
  6
CONTINUOUS
 62
4
 10
124.706317
 20
184.010195
 11
126.836259
 21
186.140137
  0
LINE
  8
1
  6
CONTINUOUS
 62
4
 10
126.12053
 20
184.010195
 11
126.836259
 21
184.725924
  0
ENDBLK
  0
ENDSEC
  0
SECTION
  2
ENTITIES
  0
LINE
  8
1
  6
CONTINUOUS
 62
3
 10
204.170683
 20
135.36769
 11
204.170683
 21
142.36769
  0
ARC
  8
1
  6
CONTINUOUS
 62
3
 10
202.170683
 20
142.36769
 40
2
 50
0
 51
41.409622
  0
LINE
  8
1
  6
CONTINUOUS
 62
3
 10
202.170683
 20
144.36769
 11
200.470683
 21
144.36769
  0
LINE
  8
1
  6
CONTINUOUS
 62
3
 10
189.195683
 20
144.590193
 11
189.195683
 21
142.36769
  0
LINE
  8
1
  6
CONTINUOUS
 62
3
 10
189.195683
 20
142.36769
 11
191.95654
 21
142.36769
  0
LINE
  8
1
  6
CONTINUOUS
 62
3
 10
176.170683
 20
141.61769
 11
176.170683
 21
152.36769
  0
LINE
  8
1
  6
CONTINUOUS
 62
3
 10
176.170683
 20
152.36769
 11
174.170683
 21
152.36769
  0
ARC
  8
1
  6
CONTINUOUS
 62
3
 10
192.170683
 20
164.36769
 40
20
 50
216.869898
 51
270
  0
LINE
  8
1
  6
CONTINUOUS
 62
3
 10
174.170683
 20
97
 11
176.170683
 21
97
  0
LINE
  8
1
  6
CONTINUOUS
 62
3
 10
176.170683
 20
97
 11
176.170683
 21
63
  0
LINE
  8
1
  6
CONTINUOUS
 62
3
 10
176.170683
 20
96.5
 11
179.145683
 21
96.5
  0
ARC
  8
1
  6
CONTINUOUS
 62
3
 10
184.170683
 20
117.11981
 40
21.22327
 50
256.304112
 51
283.695888
  0
LINE
  8
1
  6
CONTINUOUS
 62
3
 10
176.170683
 20
63
 11
174.170683
 21
63
  0
LINE
  8
1
  6
CONTINUOUS
 62
3
 10
174.170683
 20
63
 11
174.170683
 21
80
  0
LINE
  8
1
  6
CONTINUOUS
 62
3
 10
189.195683
 20
96.5
 11
193.339958
 21
96.5
  0
LINE
  8
1
  6
CONTINUOUS
 62
3
 10
204.170683
 20
90.5
 11
204.170683
 21
69.5
  0
ARC
  8
1
  6
CONTINUOUS
 62
3
 10
198.170683
 20
69.5
 40
6
 50
270
 51
360
  0
LINE
  8
1
  6
CONTINUOUS
 62
3
 10
198.170683
 20
63.5
 11
192.170683
 21
63.5
  0
ARC
  8
1
  6
CONTINUOUS
 62
3
 10
184.170683
 20
49.06913
 40
16.5
 50
60.997454
 51
119.002546
  0
ARC
  8
1
  6
CONTINUOUS
 62
3
 10
198.170683
 20
90.5
 40
6
 50
0
 51
8.249603
  0
LINE
  8
1
  6
DASHDOT
 62
4
 10
199.670683
 20
88.233182
 11
199.670683
 21
93.637211
  0
LINE
  8
1
  6
DASHDOT
 62
4
 10
196.872968
 20
91
 11
202.761646
 21
91
  0
LINE
  8
1
  6
DASHDOT
 62
4
 10
199.670683
 20
121.974536
 11
199.670683
 21
149.102016
  0
LINE
  8
1
  6
CONTINUOUS
 62
3
 10
188.854756
 20
96.159073
 11
204.170683
 21
80.843145
  0
LINE
  8
1
  6
CONTINUOUS
 62
3
 10
174.170683
 20
118.36769
 11
174.170683
 21
129.11769
  0
LINE
  8
1
  6
CONTINUOUS
 62
3
 10
174.170683
 20
152.06769
 11
173.870683
 21
152.36769
  0
LINE
  8
1
  6
CONTINUOUS
 62
3
 10
174.170683
 20
118.36769
 11
103.170683
 21
118.36769
  0
LINE
  8
1
  6
CONTINUOUS
 62
3
 10
103.170683
 20
97
 11
174.170683
 21
97
  0
LINE
  8
1
  6
CONTINUOUS
 62
3
 10
174.170683
 20
97
 11
174.170683
 21
80
  0
LINE
  8
1
  6
DASHDOT
 62
4
 10
68.662925
 20
135.36769
 11
208.170683
 21
135.36769
  0
LINE
  8
1
  6
DASHDOT
 62
4
 10
226.720645
 20
80
 11
69.141336
 21
80
  0
LINE
  8
1
  6
CONTINUOUS
 62
4
 10
156.170683
 20
63
 11
156.170683
 21
97
  0
LINE
  8
1
  6
CONTINUOUS
 62
4
 10
162.170683
 20
97
 11
162.170683
 21
63
  0
ARC
  8
1
  6
CONTINUOUS
 62
3
 10
201.873386
 20
85.261763
 40
1.5
 50
225
 51
357
  0
LINE
  8
1
  6
CONTINUOUS
 62
3
 10
203.37133
 20
85.183259
 11
203.689198
 21
91.248536
  0
LINE
  8
1
  6
CONTINUOUS
 62
3
 10
204.115291
 20
99.37887
 11
181.146811
 21
100.582597
  0
LINE
  8
1
  6
CONTINUOUS
 62
3
 10
181.146811
 20
100.582597
 11
179.130049
 21
101.346465
  0
ARC
  8
1
  6
CONTINUOUS
 62
3
 10
178.067437
 20
98.540961
 40
3
 50
69.255328
 51
87
  0
LINE
  8
1
  6
CONTINUOUS
 62
3
 10
178.224444
 20
101.536849
 11
149.200882
 21
103.05791
  0
ARC
  8
1
  6
CONTINUOUS
 62
3
 10
149.043874
 20
100.062021
 40
3
 50
87
 51
104.744672
  0
LINE
  8
1
  6
CONTINUOUS
 62
3
 10
148.280338
 20
102.96323
 11
146.194778
 21
102.414355
  0
LINE
  8
1
  6
CONTINUOUS
 62
3
 10
146.194778
 20
102.414355
 11
108.246855
 21
104.403122
  0
LINE
  8
1
  6
CONTINUOUS
 62
3
 10
108.246855
 20
104.403122
 11
108.163118
 21
102.805314
  0
LINE
  8
1
  6
CONTINUOUS
 62
3
 10
108.163118
 20
102.805314
 11
146.11104
 21
100.816548
  0
LINE
  8
1
  6
CONTINUOUS
 62
3
 10
146.11104
 20
100.816548
 11
148.1966
 21
101.365423
  0
LINE
  8
1
  6
CONTINUOUS
 62
3
 10
149.117144
 20
101.460103
 11
178.140707
 21
99.939042
  0
LINE
  8
1
  6
CONTINUOUS
 62
3
 10
179.046311
 20
99.748658
 11
181.063074
 21
98.98479
  0
LINE
  8
1
  6
CONTINUOUS
 62
3
 10
181.063074
 20
98.98479
 11
204.031553
 21
97.781063
  0
LINE
  8
1
  6
CONTINUOUS
 62
3
 10
192.32696
 20
96.838701
 11
115.799853
 21
100.849317
  0
ARC
  8
1
  6
CONTINUOUS
 62
3
 10
116.846572
 20
120.821907
 40
20
 50
244.267336
 51
267
  0
LINE
  8
1
  6
CONTINUOUS
 62
3
 10
113.920683
 20
129.11769
 11
190.171183
 21
129.11769
  0
LINE
  8
1
  6
CONTINUOUS
 62
3
 10
192.670683
 20
126.66769
 11
203.670683
 21
126.66769
  0
LINE
  8
1
  6
CONTINUOUS
 62
3
 10
203.670683
 20
126.66769
 11
203.670683
 21
144.06769
  0
LINE
  8
1
  6
CONTINUOUS
 62
3
 10
203.670683
 20
144.06769
 11
192.670683
 21
144.06769
  0
LINE
  8
1
  6
CONTINUOUS
 62
3
 10
190.171183
 20
141.61769
 11
113.920683
 21
141.61769
  0
ARC
  8
1
  6
CONTINUOUS
 62
3
 10
113.920683
 20
135.36769
 40
6.25
 50
90
 51
270
  0
LINE
  8
1
  6
CONTINUOUS
 62
3
 10
148.670683
 20
132.36769
 11
177.670683
 21
132.36769
  0
ARC
  8
1
  6
CONTINUOUS
 62
3
 10
177.670683
 20
135.36769
 40
3
 50
-90
 51
90
  0
LINE
  8
1
  6
CONTINUOUS
 62
3
 10
177.670683
 20
138.36769
 11
148.670683
 21
138.36769
  0
ARC
  8
1
  6
CONTINUOUS
 62
3
 10
148.670683
 20
135.36769
 40
3
 50
90
 51
270
  0
ARC
  8
1
  6
CONTINUOUS
 62
3
 10
190.171183
 20
144.11769
 40
2.5
 50
270
 51
358.854008
  0
ARC
  8
1
  6
CONTINUOUS
 62
3
 10
190.171183
 20
126.61769
 40
2.5
 50
1.145992
 51
90
  0
ARC
  8
1
  6
CONTINUOUS
 62
3
 10
177.983699
 20
96.943154
 40
3
 50
69.255328
 51
87
  0
LINE
  8
1
  6
CONTINUOUS
 62
3
 10
194.096383
 20
95.539845
 11
196.842256
 21
88.171573
  0
LINE
  8
1
  6
CONTINUOUS
 62
3
 10
196.842256
 20
88.171573
 11
200.812726
 21
84.201103
  0
ARC
  8
1
  6
CONTINUOUS
 62
3
 10
192.222288
 20
94.841442
 40
2
 50
20.438495
 51
87
  0
ARC
  8
1
  6
CONTINUOUS
 62
3
 10
148.960136
 20
98.464214
 40
3
 50
87
 51
104.744672
  0
LINE
  8
1
  6
CONTINUOUS
 62
3
 10
103.170683
 20
63
 11
174.170683
 21
63
  0
LINE
  8
1
  6
CONTINUOUS
 62
3
 10
204.170683
 20
135.36769
 11
204.170683
 21
128.36769
  0
ARC
  8
1
  6
CONTINUOUS
 62
3
 10
202.170683
 20
128.36769
 40
2
 50
270
 51
301.788331
  0
LINE
  8
1
  6
CONTINUOUS
 62
3
 10
202.170683
 20
126.36769
 11
200.470683
 21
126.36769
  0
LINE
  8
1
  6
CONTINUOUS
 62
3
 10
189.195683
 20
126.145186
 11
189.195683
 21
128.36769
  0
LINE
  8
1
  6
CONTINUOUS
 62
3
 10
189.195683
 20
128.36769
 11
191.95654
 21
128.36769
  0
LINE
  8
1
  6
CONTINUOUS
 62
3
 10
176.170683
 20
129.11769
 11
176.170683
 21
118.36769
  0
LINE
  8
1
  6
CONTINUOUS
 62
3
 10
176.170683
 20
118.36769
 11
174.170683
 21
118.36769
  0
ARC
  8
1
  6
CONTINUOUS
 62
3
 10
192.170683
 20
106.36769
 40
20
 50
90
 51
143.130102
  0
LINE
  8
1
  6
CONTINUOUS
 62
3
 10
191.184512
 20
93.829316
 11
190
 21
93.829316
  0
LINE
  8
1
  6
CONTINUOUS
 62
3
 10
203.162241
 20
66.170683
 11
190
 21
66.170683
  0
ARC
  8
1
  6
CONTINUOUS
 62
3
 10
190
 20
80
 40
13.829317
 50
90
 51
270
  0
LINE
  8
1
  6
CONTINUOUS
 62
3
 10
208.170683
 20
128.36769
 11
208.170683
 21
135.36769
  0
LINE
  8
1
  6
CONTINUOUS
 62
3
 10
213.170683
 20
128.36769
 11
213.170683
 21
135.36769
  0
LINE
  8
1
  6
CONTINUOUS
 62
3
 10
213.670683
 20
129.86769
 11
214.670683
 21
129.86769
  0
ARC
  8
1
  6
CONTINUOUS
 62
3
 10
214.670683
 20
129.36769
 40
0.5
 50
0
 51
90
  0
LINE
  8
1
  6
CONTINUOUS
 62
3
 10
215.170683
 20
128.78919
 11
215.170683
 21
135.36769
  0
ARC
  8
1
  6
CONTINUOUS
 62
3
 10
213.670683
 20
129.36769
 40
0.5
 50
90
 51
180
  0
LINE
  8
1
  6
CONTINUOUS
 62
3
 10
222.170683
 20
129.28919
 11
222.170683
 21
141.44619
  0
LINE
  8
1
  6
CONTINUOUS
 62
3
 10
215.170683
 20
141.94619
 11
215.170683
 21
135.36769
  0
ARC
  8
1
  6
CONTINUOUS
 62
3
 10
214.670683
 20
141.36769
 40
0.5
 50
270
 51
360
  0
LINE
  8
1
  6
CONTINUOUS
 62
3
 10
214.670683
 20
140.86769
 11
213.670683
 21
140.86769
  0
ARC
  8
1
  6
CONTINUOUS
 62
3
 10
213.670683
 20
141.36769
 40
0.5
 50
180
 51
270
  0
LINE
  8
1
  6
CONTINUOUS
 62
3
 10
213.170683
 20
135.36769
 11
213.170683
 21
142.36769
  0
LINE
  8
1
  6
CONTINUOUS
 62
3
 10
208.170683
 20
135.36769
 11
208.170683
 21
142.36769
  0
LINE
  8
1
  6
CONTINUOUS
 62
4
 10
221.670683
 20
128.78919
 11
221.670683
 21
141.94619
  0
LINE
  8
1
  6
CONTINUOUS
 62
3
 10
215.170683
 20
141.94619
 11
221.670683
 21
141.94619
  0
LINE
  8
1
  6
CONTINUOUS
 62
4
 10
215.170683
 20
141.09019
 11
222.170683
 21
141.09019
  0
LINE
  8
1
  6
CONTINUOUS
 62
3
 10
221.670683
 20
141.94619
 11
222.170683
 21
141.44619
  0
LINE
  8
1
  6
CONTINUOUS
 62
3
 10
215.170683
 20
128.78919
 11
215.170683
 21
129.36769
  0
LINE
  8
1
  6
CONTINUOUS
 62
3
 10
215.170683
 20
128.78919
 11
221.670683
 21
128.78919
  0
LINE
  8
1
  6
CONTINUOUS
 62
4
 10
215.170683
 20
129.64519
 11
222.170683
 21
129.64519
  0
LINE
  8
1
  6
CONTINUOUS
 62
3
 10
221.670683
 20
128.78919
 11
222.170683
 21
129.28919
  0
LINE
  8
1
  6
CONTINUOUS
 62
4
 10
207.28707
 20
141.406327
 11
204.170683
 21
141.30894
  0
LINE
  8
1
  6
CONTINUOUS
 62
3
 10
208.170683
 20
142.28994
 11
204.090933
 21
142.162447
  0
LINE
  8
1
  6
CONTINUOUS
 62
4
 10
208.170683
 20
142.28994
 11
207.257616
 21
141.376873
  0
LINE
  8
1
  6
CONTINUOUS
 62
4
 10
207.28707
 20
141.406327
 11
207.28707
 21
142.262327
  0
LINE
  8
1
  6
CONTINUOUS
 62
4
 10
207.28707
 20
129.329052
 11
204.170683
 21
129.42644
  0
LINE
  8
1
  6
CONTINUOUS
 62
3
 10
208.170683
 20
128.44544
 11
204.090933
 21
128.572932
  0
LINE
  8
1
  6
CONTINUOUS
 62
4
 10
208.170683
 20
128.44544
 11
207.257616
 21
129.358506
  0
LINE
  8
1
  6
CONTINUOUS
 62
4
 10
207.28707
 20
142.262327
 11
207.28707
 21
128.473052
  0
LINE
  8
1
  6
CONTINUOUS
 62
3
 10
208.170683
 20
142.36769
 11
213.170683
 21
142.36769
  0
LINE
  8
1
  6
CONTINUOUS
 62
3
 10
208.170683
 20
135.36769
 11
212.545468
 21
135.36769
  0
LINE
  8
1
  6
CONTINUOUS
 62
3
 10
208.170683
 20
128.36769
 11
213.170683
 21
128.36769
  0
ARC
  8
1
  6
CONTINUOUS
 62
3
 10
203.061442
 20
131.86769
 40
10.109241
 50
-20.256158
 51
20.256158
  0
ARC
  8
1
  6
CONTINUOUS
 62
3
 10
203.061442
 20
138.86769
 40
10.109241
 50
-20.256158
 51
20.256158
  0
LINE
  8
1
  6
DASHDOT
 62
4
 10
212.545468
 20
135.36769
 11
224.055336
 21
135.36769
  0
LINE
  8
1
  6
CONTINUOUS
 62
3
 10
212.545468
 20
71.917096
 11
208.170683
 21
71.917096
  0
LINE
  8
1
  6
CONTINUOUS
 62
3
 10
208.170683
 20
71.917096
 11
208.170683
 21
80
  0
LINE
  8
1
  6
CONTINUOUS
 62
3
 10
208.170683
 20
76
 11
212.545468
 21
76
  0
ARC
  8
1
  6
CONTINUOUS
 62
3
 10
209.526575
 20
73.958548
 40
3.644344
 50
0.651714
 51
34.067546
  0
LINE
  8
1
  6
CONTINUOUS
 62
3
 10
212.803971
 20
72.364835
 11
212.545468
 21
71.917096
  0
LINE
  8
1
  6
CONTINUOUS
 62
3
 10
213.170683
 20
73
 11
213.170683
 21
80
  0
ARC
  8
1
  6
CONTINUOUS
 62
3
 10
200.062473
 20
80
 40
13.10821
 50
342.232675
 51
360
  0
LINE
  8
1
  6
CONTINUOUS
 62
3
 10
213.670683
 20
74.5
 11
214.670683
 21
74.5
  0
ARC
  8
1
  6
CONTINUOUS
 62
3
 10
214.670683
 20
74
 40
0.5
 50
0
 51
90
  0
LINE
  8
1
  6
CONTINUOUS
 62
3
 10
215.170683
 20
73.4215
 11
215.170683
 21
80
  0
ARC
  8
1
  6
CONTINUOUS
 62
3
 10
213.670683
 20
74
 40
0.5
 50
90
 51
180
  0
LINE
  8
1
  6
CONTINUOUS
 62
3
 10
222.170683
 20
73.9215
 11
222.170683
 21
86.0785
  0
LINE
  8
1
  6
CONTINUOUS
 62
3
 10
215.170683
 20
86.5785
 11
215.170683
 21
80
  0
ARC
  8
1
  6
CONTINUOUS
 62
3
 10
214.670683
 20
86
 40
0.5
 50
270
 51
360
  0
LINE
  8
1
  6
CONTINUOUS
 62
3
 10
214.670683
 20
85.5
 11
213.670683
 21
85.5
  0
ARC
  8
1
  6
CONTINUOUS
 62
3
 10
213.670683
 20
86
 40
0.5
 50
180
 51
270
  0
LINE
  8
1
  6
CONTINUOUS
 62
3
 10
213.170683
 20
80
 11
213.170683
 21
87
  0
LINE
  8
1
  6
CONTINUOUS
 62
3
 10
213.170683
 20
87
 11
212.545468
 21
88.082903
  0
LINE
  8
1
  6
CONTINUOUS
 62
3
 10
212.545468
 20
88.082903
 11
208.170683
 21
88.082903
  0
LINE
  8
1
  6
CONTINUOUS
 62
3
 10
208.170683
 20
80
 11
208.170683
 21
88.082903
  0
LINE
  8
1
  6
CONTINUOUS
 62
4
 10
221.670683
 20
73.4215
 11
221.670683
 21
86.5785
  0
LINE
  8
1
  6
CONTINUOUS
 62
3
 10
215.170683
 20
86.5785
 11
221.670683
 21
86.5785
  0
LINE
  8
1
  6
CONTINUOUS
 62
4
 10
215.170683
 20
85.7225
 11
222.170683
 21
85.7225
  0
LINE
  8
1
  6
CONTINUOUS
 62
3
 10
221.670683
 20
86.5785
 11
222.170683
 21
86.0785
  0
LINE
  8
1
  6
CONTINUOUS
 62
3
 10
215.170683
 20
73.4215
 11
215.170683
 21
74
  0
LINE
  8
1
  6
CONTINUOUS
 62
3
 10
215.170683
 20
73.4215
 11
221.670683
 21
73.4215
  0
LINE
  8
1
  6
CONTINUOUS
 62
4
 10
215.170683
 20
74.2775
 11
222.170683
 21
74.2775
  0
LINE
  8
1
  6
CONTINUOUS
 62
3
 10
221.670683
 20
73.4215
 11
222.170683
 21
73.9215
  0
LINE
  8
1
  6
CONTINUOUS
 62
4
 10
207.28707
 20
86.038637
 11
204.170683
 21
85.94125
  0
LINE
  8
1
  6
CONTINUOUS
 62
3
 10
208.170683
 20
86.92225
 11
204.170683
 21
86.79725
  0
LINE
  8
1
  6
CONTINUOUS
 62
4
 10
208.170683
 20
86.92225
 11
207.257616
 21
86.009183
  0
LINE
  8
1
  6
CONTINUOUS
 62
4
 10
207.28707
 20
86.038637
 11
207.28707
 21
86.894637
  0
LINE
  8
1
  6
CONTINUOUS
 62
4
 10
207.28707
 20
73.961363
 11
204.170683
 21
74.05875
  0
LINE
  8
1
  6
CONTINUOUS
 62
3
 10
208.170683
 20
73.07775
 11
204.170683
 21
73.20275
  0
LINE
  8
1
  6
CONTINUOUS
 62
4
 10
208.170683
 20
73.07775
 11
207.257616
 21
73.990816
  0
LINE
  8
1
  6
CONTINUOUS
 62
4
 10
207.28707
 20
86.894637
 11
207.28707
 21
73.105363
  0
LINE
  8
1
  6
CONTINUOUS
 62
3
 10
208.170683
 20
84
 11
212.545468
 21
84
  0
ARC
  8
1
  6
CONTINUOUS
 62
3
 10
209.526575
 20
86.041452
 40
3.644344
 50
-34.067546
 51
0.651714
  0
ARC
  8
1
  6
CONTINUOUS
 62
3
 10
200.062473
 20
80
 40
13.10821
 50
0
 51
17.767325
  0
LINE
  8
1
  6
CONTINUOUS
 62
3
 10
213.170683
 20
73
 11
212.545468
 21
71.917096
  0
LINE
  8
1
  6
CONTINUOUS
 62
3
 10
174.170683
 20
152.36769
 11
174.170683
 21
141.61769
  0
LINE
  8
1
  6
CONTINUOUS
 62
3
 10
203.670683
 20
142.36769
 11
204.170683
 21
142.36769
  0
ARC
  8
1
  6
CONTINUOUS
 62
3
 10
202.170683
 20
142.36769
 40
2
 50
58.211669
 51
90
  0
LINE
  8
1
  6
CONTINUOUS
 62
3
 10
203.670683
 20
128.36769
 11
204.170683
 21
128.36769
  0
ARC
  8
1
  6
CONTINUOUS
 62
3
 10
202.170683
 20
128.36769
 40
2
 50
318.590378
 51
360
  0
LINE
  8
1
  6
CONTINUOUS
 62
3
 10
198.870683
 20
123.86769
 11
198.870683
 21
126.66769
  0
LINE
  8
1
  6
CONTINUOUS
 62
3
 10
200.470683
 20
125.46769
 11
200.470683
 21
126.66769
  0
ARC
  8
1
  6
CONTINUOUS
 62
3
 10
200.970683
 20
125.46769
 40
0.5
 50
180
 51
270
  0
LINE
  8
1
  6
CONTINUOUS
 62
3
 10
200.970683
 20
124.96769
 11
207.547207
 21
124.96769
  0
ARC
  8
1
  6
CONTINUOUS
 62
3
 10
207.547207
 20
134.96769
 40
10
 50
270
 51
285.07829
  0
LINE
  8
1
  6
CONTINUOUS
 62
3
 10
210.148594
 20
125.311977
 11
224.535571
 21
129.188033
  0
ARC
  8
1
  6
CONTINUOUS
 62
3
 10
222.870683
 20
135.36769
 40
6.4
 50
-74.92171
 51
74.92171
  0
LINE
  8
1
  6
CONTINUOUS
 62
3
 10
224.535571
 20
141.547346
 11
210.148594
 21
145.423402
  0
ARC
  8
1
  6
CONTINUOUS
 62
3
 10
207.547207
 20
135.76769
 40
10
 50
74.92171
 51
90
  0
LINE
  8
1
  6
CONTINUOUS
 62
3
 10
207.547207
 20
145.76769
 11
200.970683
 21
145.76769
  0
ARC
  8
1
  6
CONTINUOUS
 62
3
 10
200.970683
 20
145.26769
 40
0.5
 50
90
 51
180
  0
LINE
  8
1
  6
CONTINUOUS
 62
3
 10
200.470683
 20
145.26769
 11
200.470683
 21
144.06769
  0
LINE
  8
1
  6
CONTINUOUS
 62
3
 10
198.870683
 20
144.06769
 11
198.870683
 21
146.86769
  0
LINE
  8
1
  6
CONTINUOUS
 62
3
 10
199.370683
 20
147.36769
 11
207.564059
 21
147.36769
  0
ARC
  8
1
  6
CONTINUOUS
 62
3
 10
207.564059
 20
137.36769
 40
10
 50
75.11154
 51
90
  0
LINE
  8
1
  6
CONTINUOUS
 62
3
 10
210.133441
 20
147.031968
 11
224.926188
 21
143.099112
  0
ARC
  8
1
  6
CONTINUOUS
 62
3
 10
222.870683
 20
135.36769
 40
8
 50
-75.11154
 51
75.11154
  0
LINE
  8
1
  6
CONTINUOUS
 62
3
 10
224.926188
 20
127.636267
 11
210.133441
 21
123.703411
  0
LINE
  8
1
  6
CONTINUOUS
 62
3
 10
207.564059
 20
123.36769
 11
199.370683
 21
123.36769
  0
ARC
  8
1
  6
CONTINUOUS
 62
3
 10
199.370683
 20
123.86769
 40
0.5
 50
180
 51
270
  0
ARC
  8
1
  6
CONTINUOUS
 62
3
 10
207.564059
 20
133.36769
 40
10
 50
270
 51
284.88846
  0
ARC
  8
1
  6
CONTINUOUS
 62
3
 10
199.370683
 20
146.86769
 40
0.5
 50
90
 51
180
  0
LINE
  8
1
  6
CONTINUOUS
 62
3
 10
198.870683
 20
144.36769
 11
192.170683
 21
144.36769
  0
LINE
  8
1
  6
CONTINUOUS
 62
3
 10
198.870683
 20
126.36769
 11
192.170683
 21
126.36769
  0
ARC
  8
1
  6
CONTINUOUS
 62
3
 10
199.670683
 20
91
 40
1.55
 50
46.072951
 51
343.927049
  0
ARC
  8
1
  6
CONTINUOUS
 62
3
 10
199.670683
 20
91
 40
1.65
 50
44.002546
 51
345.997454
  0
LINE
  8
1
  6
CONTINUOUS
 62
3
 10
228.827773
 20
99.640839
 11
199.463628
 21
91.77274
  0
LINE
  8
1
  6
CONTINUOUS
 62
3
 10
229.241884
 20
98.095358
 11
199.877738
 21
90.227259
  0
ARC
  8
1
  6
CONTINUOUS
 62
3
 10
199.670683
 20
91
 40
0.8
 50
105
 51
285
  0
ARC
  8
1
  6
CONTINUOUS
 62
3
 10
229.034828
 20
98.868099
 40
0.8
 50
-75
 51
105
  0
INSERT
  8
1
  6
CONTINUOUS
  2
BLKF074
 10
-155.566897
 20
-1.42669100000001
 30
0.0
  0
INSERT
  8
1
  6
CONTINUOUS
  2
BLKF075
 10
-155.566897
 20
-1.42669100000001
 30
0.0
  0
LINE
  8
1
  6
CONTINUOUS
 62
4
 10
138.170683
 20
63
 11
138.170683
 21
97
  0
LINE
  8
1
  6
CONTINUOUS
 62
4
 10
144.170683
 20
97
 11
144.170683
 21
63
  0
INSERT
  8
1
  6
CONTINUOUS
  2
BLKF076
 10
-155.566897
 20
-1.42669100000001
 30
0.0
  0
INSERT
  8
1
  6
CONTINUOUS
  2
BLKF077
 10
-155.566897
 20
-1.42669100000001
 30
0.0
  0
LINE
  8
1
  6
CONTINUOUS
 62
4
 10
120.170683
 20
63
 11
120.170683
 21
97
  0
LINE
  8
1
  6
CONTINUOUS
 62
4
 10
126.170683
 20
97
 11
126.170683
 21
63
  0
INSERT
  8
1
  6
CONTINUOUS
  2
BLKF078
 10
-155.566897
 20
-1.42669100000001
 30
0.0
  0
INSERT
  8
1
  6
CONTINUOUS
  2
BLKF079
 10
-155.566897
 20
-1.42669100000001
 30
0.0
  0
LINE
  8
1
  6
CONTINUOUS
 62
4
 10
162.170683
 20
152.36769
 11
162.170683
 21
141.61769
  0
LINE
  8
1
  6
CONTINUOUS
 62
4
 10
156.170683
 20
152.36769
 11
156.170683
 21
141.61769
  0
LINE
  8
1
  6
CONTINUOUS
 62
4
 10
144.170683
 20
141.61769
 11
144.170683
 21
152.36769
  0
LINE
  8
1
  6
CONTINUOUS
 62
4
 10
138.170683
 20
141.61769
 11
138.170683
 21
152.36769
  0
LINE
  8
1
  6
CONTINUOUS
 62
4
 10
126.170683
 20
141.61769
 11
126.170683
 21
152.36769
  0
LINE
  8
1
  6
CONTINUOUS
 62
4
 10
120.170683
 20
141.61769
 11
120.170683
 21
152.36769
  0
INSERT
  8
1
  6
CONTINUOUS
  2
BLKF080
 10
-155.566897
 20
-1.42669100000001
 30
0.0
  0
INSERT
  8
1
  6
CONTINUOUS
  2
BLKF081
 10
-155.566897
 20
-1.42669100000001
 30
0.0
  0
INSERT
  8
1
  6
CONTINUOUS
  2
BLKF082
 10
-155.566897
 20
-1.42669100000001
 30
0.0
  0
INSERT
  8
1
  6
CONTINUOUS
  2
BLKF083
 10
-155.566897
 20
-1.42669100000001
 30
0.0
  0
INSERT
  8
1
  6
CONTINUOUS
  2
BLKF084
 10
-155.566897
 20
-1.42669100000001
 30
0.0
  0
INSERT
  8
1
  6
CONTINUOUS
  2
BLKF085
 10
-155.566897
 20
-1.42669100000001
 30
0.0
  0
LINE
  8
1
  6
CONTINUOUS
 62
4
 10
162.170683
 20
129.11769
 11
162.170683
 21
118.36769
  0
LINE
  8
1
  6
CONTINUOUS
 62
4
 10
156.170683
 20
129.11769
 11
156.170683
 21
118.36769
  0
LINE
  8
1
  6
CONTINUOUS
 62
4
 10
144.170683
 20
118.36769
 11
144.170683
 21
129.11769
  0
LINE
  8
1
  6
CONTINUOUS
 62
4
 10
138.170683
 20
118.36769
 11
138.170683
 21
129.11769
  0
LINE
  8
1
  6
CONTINUOUS
 62
4
 10
126.170683
 20
118.36769
 11
126.170683
 21
129.11769
  0
LINE
  8
1
  6
CONTINUOUS
 62
4
 10
120.170683
 20
118.36769
 11
120.170683
 21
129.11769
  0
INSERT
  8
1
  6
CONTINUOUS
  2
BLKF086
 10
-155.566897
 20
-1.42669100000001
 30
0.0
  0
INSERT
  8
1
  6
CONTINUOUS
  2
BLKF087
 10
-155.566897
 20
-1.42669100000001
 30
0.0
  0
INSERT
  8
1
  6
CONTINUOUS
  2
BLKF088
 10
-155.566897
 20
-1.42669100000001
 30
0.0
  0
INSERT
  8
1
  6
CONTINUOUS
  2
BLKF089
 10
-155.566897
 20
-1.42669100000001
 30
0.0
  0
INSERT
  8
1
  6
CONTINUOUS
  2
BLKF090
 10
-155.566897
 20
-1.42669100000001
 30
0.0
  0
INSERT
  8
1
  6
CONTINUOUS
  2
BLKF091
 10
-155.566897
 20
-1.42669100000001
 30
0.0
  0
INSERT
  8
1
  6
CONTINUOUS
  2
BLKF092
 10
-155.566897
 20
-1.42669100000001
 30
0.0
  0
INSERT
  8
1
  6
CONTINUOUS
  2
BLKF093
 10
-155.566897
 20
-1.42669100000001
 30
0.0
  0
INSERT
  8
1
  6
CONTINUOUS
  2
BLKF094
 10
-155.566897
 20
-1.42669100000001
 30
0.0
  0
INSERT
  8
1
  6
CONTINUOUS
  2
BLKF095
 10
-155.566897
 20
-1.42669100000001
 30
0.0
  0
INSERT
  8
1
  6
CONTINUOUS
  2
BLKF096
 10
-155.566897
 20
-1.42669100000001
 30
0.0
  0
INSERT
  8
1
  6
CONTINUOUS
  2
BLKF097
 10
-155.566897
 20
-1.42669100000001
 30
0.0
  0
LINE
  8
1
  6
CONTINUOUS
 62
3
 10
203.777245
 20
92.92857
 11
204.115291
 21
99.37887
  0
LINE
  8
1
  6
CONTINUOUS
 62
4
 10
209.837754
 20
54.101746
 11
230.489464
 21
54.101746
  0
TEXT
  8
1
 62
4
  6
CONTINUOUS
 62
4
 10
212.399039303139
 20
54.601743753418
 40
3.200000047684
  1
GT-N10
  7
Font_0
  0
LINE
  8
1
  6
CONTINUOUS
 62
3
 10
72.170683
 20
80
 11
72.170683
 21
86.159526
  0
ARC
  8
1
  6
CONTINUOUS
 62
3
 10
73.170683
 20
83.5
 40
1
 50
0
 51
180
  0
LINE
  8
1
  6
CONTINUOUS
 62
3
 10
74.170683
 20
83.5
 11
91.639264
 21
88.620101
  0
LINE
  8
1
  6
CONTINUOUS
 62
3
 10
96.170683
 20
94.677167
 11
96.170683
 21
95.193548
  0
LINE
  8
1
  6
CONTINUOUS
 62
3
 10
96.170683
 20
95.193548
 11
103.170683
 21
97
  0
LINE
  8
1
  6
CONTINUOUS
 62
3
 10
103.170683
 20
97
 11
103.170683
 21
80
  0
ARC
  8
1
  6
CONTINUOUS
 62
3
 10
94.170698
 20
79.983444
 40
9
 50
0.105395
 51
106.336043
  0
LINE
  8
1
  6
CONTINUOUS
 62
3
 10
96.170683
 20
94.677167
 11
74.421049
 21
89.064358
  0
ARC
  8
1
  6
CONTINUOUS
 62
3
 10
75.170683
 20
86.159526
 40
3
 50
104.470294
 51
180
  0
LINE
  8
1
  6
CONTINUOUS
 62
3
 10
74.170683
 20
83.5
 11
74.170683
 21
80
  0
LINE
  8
1
  6
DASHDOT
 62
4
 10
79.170683
 20
85.632701
 11
79.170683
 21
74.384592
  0
LINE
  8
1
  6
CONTINUOUS
 62
4
 10
162.170683
 20
80
 11
162.170683
 21
97
  0
LINE
  8
1
  6
CONTINUOUS
 62
4
 10
156.170683
 20
97
 11
156.170683
 21
80
  0
LINE
  8
1
  6
CONTINUOUS
 62
4
 10
138.170683
 20
97
 11
138.170683
 21
80
  0
LINE
  8
1
  6
CONTINUOUS
 62
4
 10
120.170683
 20
97
 11
120.170683
 21
80
  0
LINE
  8
1
  6
CONTINUOUS
 62
3
 10
72.170683
 20
80
 11
72.170683
 21
73.840473
  0
ARC
  8
1
  6
CONTINUOUS
 62
3
 10
73.170683
 20
76.5
 40
1
 50
180
 51
360
  0
LINE
  8
1
  6
CONTINUOUS
 62
3
 10
74.170683
 20
76.5
 11
91.639264
 21
71.379898
  0
LINE
  8
1
  6
CONTINUOUS
 62
3
 10
96.170683
 20
65.322832
 11
96.170683
 21
64.806451
  0
LINE
  8
1
  6
CONTINUOUS
 62
3
 10
96.170683
 20
64.806451
 11
103.170683
 21
63
  0
LINE
  8
1
  6
CONTINUOUS
 62
3
 10
103.170683
 20
63
 11
103.170683
 21
80
  0
ARC
  8
1
  6
CONTINUOUS
 62
3
 10
94.170698
 20
80.016555
 40
9
 50
253.663957
 51
359.894605
  0
LINE
  8
1
  6
CONTINUOUS
 62
3
 10
96.170683
 20
65.322832
 11
74.421049
 21
70.935641
  0
ARC
  8
1
  6
CONTINUOUS
 62
3
 10
75.170683
 20
73.840473
 40
3
 50
180
 51
255.529706
  0
LINE
  8
1
  6
CONTINUOUS
 62
3
 10
74.170683
 20
76.5
 11
74.170683
 21
80
  0
LINE
  8
1
  6
CONTINUOUS
 62
4
 10
162.170683
 20
80
 11
162.170683
 21
63
  0
LINE
  8
1
  6
CONTINUOUS
 62
4
 10
156.170683
 20
63
 11
156.170683
 21
80
  0
LINE
  8
1
  6
CONTINUOUS
 62
4
 10
138.170683
 20
63
 11
138.170683
 21
80
  0
LINE
  8
1
  6
CONTINUOUS
 62
4
 10
120.170683
 20
63
 11
120.170683
 21
80
  0
LINE
  8
1
  6
CONTINUOUS
 62
3
 10
98.670683
 20
130.86769
 11
98.670683
 21
139.86769
  0
LINE
  8
1
  6
CONTINUOUS
 62
3
 10
98.670683
 20
139.86769
 11
72.170683
 21
139.86769
  0
LINE
  8
1
  6
CONTINUOUS
 62
3
 10
72.170683
 20
139.86769
 11
72.170683
 21
141.86769
  0
LINE
  8
1
  6
CONTINUOUS
 62
3
 10
72.170683
 20
141.86769
 11
74.170683
 21
143.86769
  0
LINE
  8
1
  6
CONTINUOUS
 62
3
 10
74.170683
 20
143.86769
 11
90.29629
 21
143.86769
  0
ARC
  8
1
  6
CONTINUOUS
 62
3
 10
90.29629
 20
157.86769
 40
14
 50
270
 51
336.867604
  0
LINE
  8
1
  6
CONTINUOUS
 62
3
 10
103.170683
 20
152.36769
 11
174.170683
 21
152.36769
  0
LINE
  8
1
  6
CONTINUOUS
 62
3
 10
103.170683
 20
118.36769
 11
103.170683
 21
152.36769
  0
LINE
  8
1
  6
DASHDOT
 62
4
 10
79.170683
 20
146.352832
 11
79.170683
 21
121.300714
  0
LINE
  8
1
  6
CONTINUOUS
 62
3
 10
98.670683
 20
130.86769
 11
72.170683
 21
130.86769
  0
LINE
  8
1
  6
CONTINUOUS
 62
3
 10
72.170683
 20
130.86769
 11
72.170683
 21
128.86769
  0
LINE
  8
1
  6
CONTINUOUS
 62
3
 10
72.170683
 20
128.86769
 11
74.170683
 21
126.86769
  0
LINE
  8
1
  6
CONTINUOUS
 62
3
 10
74.170683
 20
126.86769
 11
90.29629
 21
126.86769
  0
ARC
  8
1
  6
CONTINUOUS
 62
3
 10
90.29629
 20
112.86769
 40
14
 50
23.132396
 51
90
  0
ARC
  8
1
  6
CONTINUOUS
 62
3
 10
79.170683
 20
80
 40
3.5
 50
0
 51
180
  0
ARC
  8
1
  6
CONTINUOUS
 62
3
 10
79.170683
 20
80
 40
3.5
 50
180
 51
360
  0
CIRCLE
  8
1
  6
CONTINUOUS
 62
3
 10
79.170683
 20
80
 40
1.5
  0
CIRCLE
  8
1
  6
CONTINUOUS
 62
4
 10
79.170683
 20
80
 40
1.25
  0
LINE
  8
1
  6
CONTINUOUS
 62
3
 10
77.58297
 20
77.25
 11
80.758396
 21
77.25
  0
LINE
  8
1
  6
CONTINUOUS
 62
3
 10
75.995257
 20
80
 11
77.58297
 21
77.25
  0
LINE
  8
1
  6
CONTINUOUS
 62
3
 10
82.34611
 20
80
 11
80.758396
 21
77.25
  0
LINE
  8
1
  6
CONTINUOUS
 62
3
 10
77.58297
 20
82.75
 11
80.758396
 21
82.75
  0
LINE
  8
1
  6
CONTINUOUS
 62
3
 10
75.995257
 20
80
 11
77.58297
 21
82.75
  0
LINE
  8
1
  6
CONTINUOUS
 62
3
 10
82.34611
 20
80
 11
80.758396
 21
82.75
  0
CIRCLE
  8
1
  6
CONTINUOUS
 62
3
 10
79.170683
 20
80
 40
2.75
  0
LINE
  8
1
  6
CONTINUOUS
 62
3
 10
77.170683
 20
139.86769
 11
77.170683
 21
130.86769
  0
LINE
  8
1
  6
CONTINUOUS
 62
3
 10
81.170683
 20
139.86769
 11
81.170683
 21
130.86769
  0
LINE
  8
1
  6
CONTINUOUS
 62
3
 10
78.170683
 20
123.06769
 11
80.170683
 21
123.06769
  0
LINE
  8
1
  6
CONTINUOUS
 62
3
 10
77.670683
 20
126.46769
 11
77.670683
 21
123.56769
  0
LINE
  8
1
  6
CONTINUOUS
 62
4
 10
77.920683
 20
126.46769
 11
77.920683
 21
123.31769
  0
LINE
  8
1
  6
CONTINUOUS
 62
3
 10
78.170683
 20
123.06769
 11
77.670683
 21
123.56769
  0
LINE
  8
1
  6
CONTINUOUS
 62
4
 10
77.670683
 20
123.56769
 11
80.670683
 21
123.56769
  0
LINE
  8
1
  6
CONTINUOUS
 62
3
 10
80.670683
 20
126.46769
 11
80.670683
 21
123.56769
  0
LINE
  8
1
  6
CONTINUOUS
 62
3
 10
80.170683
 20
123.06769
 11
80.670683
 21
123.56769
  0
LINE
  8
1
  6
CONTINUOUS
 62
4
 10
80.420683
 20
126.46769
 11
80.420683
 21
123.31769
  0
LINE
  8
1
  6
CONTINUOUS
 62
3
 10
81.920683
 20
126.46769
 11
76.420683
 21
126.46769
  0
LINE
  8
1
  6
CONTINUOUS
 62
3
 10
77.58297
 20
126.86769
 11
77.58297
 21
126.71331
  0
LINE
  8
1
  6
CONTINUOUS
 62
3
 10
75.995257
 20
126.86769
 11
75.995257
 21
126.71331
  0
LINE
  8
1
  6
CONTINUOUS
 62
3
 10
80.758396
 20
126.86769
 11
80.758396
 21
126.71331
  0
LINE
  8
1
  6
CONTINUOUS
 62
3
 10
82.34611
 20
126.86769
 11
82.34611
 21
126.71331
  0
LINE
  8
1
  6
CONTINUOUS
 62
3
 10
75.995257
 20
126.71331
 11
76.420683
 21
126.46769
  0
ARC
  8
1
  6
CONTINUOUS
 62
3
 10
79.170683
 20
131.722069
 40
5.25438
 50
252.412046
 51
287.587954
  0
ARC
  8
1
  6
CONTINUOUS
 62
3
 10
75.975354
 20
131.447818
 40
5
 50
275.109864
 51
288.755062
  0
ARC
  8
1
  6
CONTINUOUS
 62
3
 10
82.366012
 20
131.447818
 40
5
 50
251.244938
 51
264.890136
  0
LINE
  8
1
  6
CONTINUOUS
 62
3
 10
82.34611
 20
126.71331
 11
81.920683
 21
126.46769
  0
INSERT
  8
1
  6
CONTINUOUS
  2
BLKF101
 10
-155.566897
 20
-1.42669100000001
 30
0.0
  0
INSERT
  8
1
  6
CONTINUOUS
  2
BLKF102
 10
-155.566897
 20
-1.42669100000001
 30
0.0
  0
INSERT
  8
1
  6
CONTINUOUS
  2
BLKF103
 10
-155.566897
 20
-1.42669100000001
 30
0.0
  0
ENDSEC
  0
EOF
