999
Outputted By AR_CAD Ver.1.5.2a
  0
SECTION
  2
HEADER
  9
$ACADVER
  1
AC1009
  9
$DWGCODEPAGE
  3
DOS932
  9
$EXTMIN
 10
0
 20
0
  9
$EXTMAX
 10
297
 20
210
  9
$INSBASE
 10
0.0
 20
0.0
 30
0.0
  9
$HANDLING
 70
     1
  9
$LTSCALE
 40
1
  0
ENDSEC
  0
SECTION
  2
TABLES
  0
TABLE
  2
LTYPE
 70
     10
  0
LTYPE
  2
BYBLOCK
 70
    64
 3

 72
    65
 73
    0
 40
    0
  0
LTYPE
  2
BYLAYER
 70
    64
 3

 72
    65
 73
    0
 40
    0
  0
LTYPE
  2
CONTINUOUS
 70
    64
 3
CONTINUOUS
 72
    65
 73
    0
 40
    0
  0
LTYPE
  2
DASHED
 70
    64
 3

 72
    65
 73
    2
 40
    0.75
 49
    0.5
 49
    -0.25
  0
LTYPE
  2
DOT
 70
    64
 3

 72
    65
 73
    2
 40
    0.25
 49
    0
 49
    -0.25
  0
LTYPE
  2
DASHDOT
 70
    64
 3

 72
    65
 73
    4
 40
    1
 49
    0.5
 49
    -0.25
 49
    0
 49
    -0.25
  0
LTYPE
  2
DIVIDE
 70
    64
 3

 72
    65
 73
    6
 40
    1.25
 49
    0.5
 49
    -0.25
 49
    0
 49
    -0.25
 49
    0
 49
    -0.25
  0
LTYPE
  2
HIDDEN
 70
    64
 3

 72
    65
 73
    2
 40
    0.375
 49
    0.25
 49
    -0.125
  0
LTYPE
  2
CENTER
 70
    64
 3

 72
    65
 73
    4
 40
    2
 49
    1.25
 49
    -0.25
 49
    0.25
 49
    -0.25
  0
LTYPE
  2
PHANTOM
 70
    64
 3

 72
    65
 73
    6
 40
    2.5
 49
    1.25
 49
    -0.25
 49
    0.25
 49
    -0.25
 49
    0.25
 49
    -0.25
  0
LTYPE
  2
BORDER
 70
    64
 3

 72
    65
 73
    6
 40
    1.75
 49
    0.5
 49
    -0.25
 49
    0.5
 49
    -0.25
 49
    0
 49
    -0.25
  0
ENDTAB
  0
TABLE
  2
LAYER
 70
   257
  0
LAYER
  2
0
 70
    0
 62
7
  6
CONTINUOUS
  0
LAYER
  2
画層1
 70
    0
 62
3
  6
CONTINUOUS
  0
LAYER
  2
画層2
 70
    0
 62
9
  6
CONTINUOUS
  0
LAYER
  2
画層3
 70
    0
 62
7
  6
CONTINUOUS
  0
LAYER
  2
画層4
 70
    0
 62
6
  6
CONTINUOUS
  0
LAYER
  2
画層5
 70
    0
 62
1
  6
CONTINUOUS
  0
LAYER
  2
画層6
 70
    0
 62
7
  6
CONTINUOUS
  0
LAYER
  2
画層7
 70
    0
 62
51
  6
CONTINUOUS
  0
LAYER
  2
画層8
 70
    0
 62
61
  6
CONTINUOUS
  0
LAYER
  2
画層9
 70
    0
 62
111
  6
CONTINUOUS
  0
LAYER
  2
画層10
 70
    0
 62
91
  6
CONTINUOUS
  0
LAYER
  2
画層11
 70
    0
 62
131
  6
CONTINUOUS
  0
LAYER
  2
画層12
 70
    0
 62
161
  6
CONTINUOUS
  0
LAYER
  2
画層13
 70
    0
 62
5
  6
CONTINUOUS
  0
LAYER
  2
画層14
 70
    0
 62
7
  6
CONTINUOUS
  0
LAYER
  2
画層15
 70
    0
 62
11
  6
CONTINUOUS
  0
LAYER
  2
画層16
 70
    0
 62
7
  6
CONTINUOUS
  0
LAYER
  2
画層17
 70
    0
 62
70
  6
CONTINUOUS
  0
LAYER
  2
画層18
 70
    0
 62
211
  6
CONTINUOUS
  0
LAYER
  2
画層19
 70
    0
 62
137
  6
CONTINUOUS
  0
LAYER
  2
画層20
 70
    0
 62
4
  6
CONTINUOUS
  0
LAYER
  2
画層21
 70
    0
 62
131
  6
CONTINUOUS
  0
LAYER
  2
画層22
 70
    0
 62
4
  6
CONTINUOUS
  0
LAYER
  2
画層23
 70
    0
 62
4
  6
CONTINUOUS
  0
LAYER
  2
画層24
 70
    0
 62
7
  6
CONTINUOUS
  0
LAYER
  2
画層25
 70
    0
 62
7
  6
CONTINUOUS
  0
LAYER
  2
画層26
 70
    0
 62
7
  6
CONTINUOUS
  0
LAYER
  2
画層27
 70
    0
 62
7
  6
CONTINUOUS
  0
LAYER
  2
画層28
 70
    0
 62
7
  6
CONTINUOUS
  0
LAYER
  2
画層29
 70
    0
 62
7
  6
CONTINUOUS
  0
LAYER
  2
画層30
 70
    0
 62
7
  6
CONTINUOUS
  0
LAYER
  2
画層31
 70
    0
 62
7
  6
CONTINUOUS
  0
LAYER
  2
画層32
 70
    0
 62
7
  6
CONTINUOUS
  0
LAYER
  2
画層33
 70
    0
 62
7
  6
CONTINUOUS
  0
LAYER
  2
画層34
 70
    0
 62
7
  6
CONTINUOUS
  0
LAYER
  2
画層35
 70
    0
 62
7
  6
CONTINUOUS
  0
LAYER
  2
画層36
 70
    0
 62
7
  6
CONTINUOUS
  0
LAYER
  2
画層37
 70
    0
 62
7
  6
CONTINUOUS
  0
LAYER
  2
画層38
 70
    0
 62
7
  6
CONTINUOUS
  0
LAYER
  2
画層39
 70
    0
 62
7
  6
CONTINUOUS
  0
LAYER
  2
画層40
 70
    0
 62
7
  6
CONTINUOUS
  0
LAYER
  2
画層41
 70
    0
 62
7
  6
CONTINUOUS
  0
LAYER
  2
画層42
 70
    0
 62
7
  6
CONTINUOUS
  0
LAYER
  2
画層43
 70
    0
 62
7
  6
CONTINUOUS
  0
LAYER
  2
画層44
 70
    0
 62
7
  6
CONTINUOUS
  0
LAYER
  2
画層45
 70
    0
 62
7
  6
CONTINUOUS
  0
LAYER
  2
画層46
 70
    0
 62
7
  6
CONTINUOUS
  0
LAYER
  2
画層47
 70
    0
 62
7
  6
CONTINUOUS
  0
LAYER
  2
画層48
 70
    0
 62
7
  6
CONTINUOUS
  0
LAYER
  2
画層49
 70
    0
 62
7
  6
CONTINUOUS
  0
LAYER
  2
画層50
 70
    0
 62
7
  6
CONTINUOUS
  0
LAYER
  2
画層51
 70
    0
 62
7
  6
CONTINUOUS
  0
LAYER
  2
画層52
 70
    0
 62
7
  6
CONTINUOUS
  0
LAYER
  2
画層53
 70
    0
 62
7
  6
CONTINUOUS
  0
LAYER
  2
画層54
 70
    0
 62
7
  6
CONTINUOUS
  0
LAYER
  2
画層55
 70
    0
 62
7
  6
CONTINUOUS
  0
LAYER
  2
画層56
 70
    0
 62
7
  6
CONTINUOUS
  0
LAYER
  2
画層57
 70
    0
 62
7
  6
CONTINUOUS
  0
LAYER
  2
画層58
 70
    0
 62
7
  6
CONTINUOUS
  0
LAYER
  2
画層59
 70
    0
 62
7
  6
CONTINUOUS
  0
LAYER
  2
画層60
 70
    0
 62
7
  6
CONTINUOUS
  0
LAYER
  2
画層61
 70
    0
 62
7
  6
CONTINUOUS
  0
LAYER
  2
画層62
 70
    0
 62
7
  6
CONTINUOUS
  0
LAYER
  2
画層63
 70
    0
 62
7
  6
CONTINUOUS
  0
LAYER
  2
画層64
 70
    0
 62
7
  6
CONTINUOUS
  0
LAYER
  2
画層65
 70
    0
 62
7
  6
CONTINUOUS
  0
LAYER
  2
画層66
 70
    0
 62
7
  6
CONTINUOUS
  0
LAYER
  2
画層67
 70
    0
 62
7
  6
CONTINUOUS
  0
LAYER
  2
画層68
 70
    0
 62
7
  6
CONTINUOUS
  0
LAYER
  2
画層69
 70
    0
 62
7
  6
CONTINUOUS
  0
LAYER
  2
画層70
 70
    0
 62
7
  6
CONTINUOUS
  0
LAYER
  2
画層71
 70
    0
 62
7
  6
CONTINUOUS
  0
LAYER
  2
画層72
 70
    0
 62
7
  6
CONTINUOUS
  0
LAYER
  2
画層73
 70
    0
 62
7
  6
CONTINUOUS
  0
LAYER
  2
画層74
 70
    0
 62
7
  6
CONTINUOUS
  0
LAYER
  2
画層75
 70
    0
 62
7
  6
CONTINUOUS
  0
LAYER
  2
画層76
 70
    0
 62
7
  6
CONTINUOUS
  0
LAYER
  2
画層77
 70
    0
 62
7
  6
CONTINUOUS
  0
LAYER
  2
画層78
 70
    0
 62
7
  6
CONTINUOUS
  0
LAYER
  2
画層79
 70
    0
 62
7
  6
CONTINUOUS
  0
LAYER
  2
画層80
 70
    0
 62
7
  6
CONTINUOUS
  0
LAYER
  2
画層81
 70
    0
 62
7
  6
CONTINUOUS
  0
LAYER
  2
画層82
 70
    0
 62
7
  6
CONTINUOUS
  0
LAYER
  2
画層83
 70
    0
 62
7
  6
CONTINUOUS
  0
LAYER
  2
画層84
 70
    0
 62
7
  6
CONTINUOUS
  0
LAYER
  2
画層85
 70
    0
 62
7
  6
CONTINUOUS
  0
LAYER
  2
画層86
 70
    0
 62
7
  6
CONTINUOUS
  0
LAYER
  2
画層87
 70
    0
 62
7
  6
CONTINUOUS
  0
LAYER
  2
画層88
 70
    0
 62
7
  6
CONTINUOUS
  0
LAYER
  2
画層89
 70
    0
 62
7
  6
CONTINUOUS
  0
LAYER
  2
画層90
 70
    0
 62
7
  6
CONTINUOUS
  0
LAYER
  2
画層91
 70
    0
 62
7
  6
CONTINUOUS
  0
LAYER
  2
画層92
 70
    0
 62
7
  6
CONTINUOUS
  0
LAYER
  2
画層93
 70
    0
 62
7
  6
CONTINUOUS
  0
LAYER
  2
画層94
 70
    0
 62
7
  6
CONTINUOUS
  0
LAYER
  2
画層95
 70
    0
 62
7
  6
CONTINUOUS
  0
LAYER
  2
画層96
 70
    0
 62
7
  6
CONTINUOUS
  0
LAYER
  2
画層97
 70
    0
 62
7
  6
CONTINUOUS
  0
LAYER
  2
画層98
 70
    0
 62
7
  6
CONTINUOUS
  0
LAYER
  2
画層99
 70
    0
 62
7
  6
CONTINUOUS
  0
LAYER
  2
画層100
 70
    0
 62
7
  6
CONTINUOUS
  0
LAYER
  2
画層101
 70
    0
 62
7
  6
CONTINUOUS
  0
LAYER
  2
画層102
 70
    0
 62
7
  6
CONTINUOUS
  0
LAYER
  2
画層103
 70
    0
 62
7
  6
CONTINUOUS
  0
LAYER
  2
画層104
 70
    0
 62
7
  6
CONTINUOUS
  0
LAYER
  2
画層105
 70
    0
 62
7
  6
CONTINUOUS
  0
LAYER
  2
画層106
 70
    0
 62
7
  6
CONTINUOUS
  0
LAYER
  2
画層107
 70
    0
 62
7
  6
CONTINUOUS
  0
LAYER
  2
画層108
 70
    0
 62
7
  6
CONTINUOUS
  0
LAYER
  2
画層109
 70
    0
 62
7
  6
CONTINUOUS
  0
LAYER
  2
画層110
 70
    0
 62
7
  6
CONTINUOUS
  0
LAYER
  2
画層111
 70
    0
 62
7
  6
CONTINUOUS
  0
LAYER
  2
画層112
 70
    0
 62
7
  6
CONTINUOUS
  0
LAYER
  2
画層113
 70
    0
 62
7
  6
CONTINUOUS
  0
LAYER
  2
画層114
 70
    0
 62
7
  6
CONTINUOUS
  0
LAYER
  2
画層115
 70
    0
 62
7
  6
CONTINUOUS
  0
LAYER
  2
画層116
 70
    0
 62
7
  6
CONTINUOUS
  0
LAYER
  2
画層117
 70
    0
 62
7
  6
CONTINUOUS
  0
LAYER
  2
画層118
 70
    0
 62
7
  6
CONTINUOUS
  0
LAYER
  2
画層119
 70
    0
 62
7
  6
CONTINUOUS
  0
LAYER
  2
画層120
 70
    0
 62
7
  6
CONTINUOUS
  0
LAYER
  2
画層121
 70
    0
 62
7
  6
CONTINUOUS
  0
LAYER
  2
画層122
 70
    0
 62
7
  6
CONTINUOUS
  0
LAYER
  2
画層123
 70
    0
 62
7
  6
CONTINUOUS
  0
LAYER
  2
画層124
 70
    0
 62
7
  6
CONTINUOUS
  0
LAYER
  2
画層125
 70
    0
 62
7
  6
CONTINUOUS
  0
LAYER
  2
画層126
 70
    0
 62
7
  6
CONTINUOUS
  0
LAYER
  2
画層127
 70
    0
 62
7
  6
CONTINUOUS
  0
LAYER
  2
画層128
 70
    0
 62
7
  6
CONTINUOUS
  0
LAYER
  2
画層129
 70
    0
 62
7
  6
CONTINUOUS
  0
LAYER
  2
画層130
 70
    0
 62
7
  6
CONTINUOUS
  0
LAYER
  2
画層131
 70
    0
 62
7
  6
CONTINUOUS
  0
LAYER
  2
画層132
 70
    0
 62
7
  6
CONTINUOUS
  0
LAYER
  2
画層133
 70
    0
 62
7
  6
CONTINUOUS
  0
LAYER
  2
画層134
 70
    0
 62
7
  6
CONTINUOUS
  0
LAYER
  2
画層135
 70
    0
 62
7
  6
CONTINUOUS
  0
LAYER
  2
画層136
 70
    0
 62
7
  6
CONTINUOUS
  0
LAYER
  2
画層137
 70
    0
 62
7
  6
CONTINUOUS
  0
LAYER
  2
画層138
 70
    0
 62
7
  6
CONTINUOUS
  0
LAYER
  2
画層139
 70
    0
 62
7
  6
CONTINUOUS
  0
LAYER
  2
画層140
 70
    0
 62
7
  6
CONTINUOUS
  0
LAYER
  2
画層141
 70
    0
 62
7
  6
CONTINUOUS
  0
LAYER
  2
画層142
 70
    0
 62
7
  6
CONTINUOUS
  0
LAYER
  2
画層143
 70
    0
 62
7
  6
CONTINUOUS
  0
LAYER
  2
画層144
 70
    0
 62
7
  6
CONTINUOUS
  0
LAYER
  2
画層145
 70
    0
 62
7
  6
CONTINUOUS
  0
LAYER
  2
画層146
 70
    0
 62
7
  6
CONTINUOUS
  0
LAYER
  2
画層147
 70
    0
 62
7
  6
CONTINUOUS
  0
LAYER
  2
画層148
 70
    0
 62
7
  6
CONTINUOUS
  0
LAYER
  2
画層149
 70
    0
 62
7
  6
CONTINUOUS
  0
LAYER
  2
画層150
 70
    0
 62
7
  6
CONTINUOUS
  0
LAYER
  2
画層151
 70
    0
 62
7
  6
CONTINUOUS
  0
LAYER
  2
画層152
 70
    0
 62
7
  6
CONTINUOUS
  0
LAYER
  2
画層153
 70
    0
 62
7
  6
CONTINUOUS
  0
LAYER
  2
画層154
 70
    0
 62
7
  6
CONTINUOUS
  0
LAYER
  2
画層155
 70
    0
 62
7
  6
CONTINUOUS
  0
LAYER
  2
画層156
 70
    0
 62
7
  6
CONTINUOUS
  0
LAYER
  2
画層157
 70
    0
 62
7
  6
CONTINUOUS
  0
LAYER
  2
画層158
 70
    0
 62
7
  6
CONTINUOUS
  0
LAYER
  2
画層159
 70
    0
 62
7
  6
CONTINUOUS
  0
LAYER
  2
画層160
 70
    0
 62
7
  6
CONTINUOUS
  0
LAYER
  2
画層161
 70
    0
 62
7
  6
CONTINUOUS
  0
LAYER
  2
画層162
 70
    0
 62
7
  6
CONTINUOUS
  0
LAYER
  2
画層163
 70
    0
 62
7
  6
CONTINUOUS
  0
LAYER
  2
画層164
 70
    0
 62
7
  6
CONTINUOUS
  0
LAYER
  2
画層165
 70
    0
 62
7
  6
CONTINUOUS
  0
LAYER
  2
画層166
 70
    0
 62
7
  6
CONTINUOUS
  0
LAYER
  2
画層167
 70
    0
 62
7
  6
CONTINUOUS
  0
LAYER
  2
画層168
 70
    0
 62
7
  6
CONTINUOUS
  0
LAYER
  2
画層169
 70
    0
 62
7
  6
CONTINUOUS
  0
LAYER
  2
画層170
 70
    0
 62
7
  6
CONTINUOUS
  0
LAYER
  2
画層171
 70
    0
 62
7
  6
CONTINUOUS
  0
LAYER
  2
画層172
 70
    0
 62
7
  6
CONTINUOUS
  0
LAYER
  2
画層173
 70
    0
 62
7
  6
CONTINUOUS
  0
LAYER
  2
画層174
 70
    0
 62
7
  6
CONTINUOUS
  0
LAYER
  2
画層175
 70
    0
 62
7
  6
CONTINUOUS
  0
LAYER
  2
画層176
 70
    0
 62
7
  6
CONTINUOUS
  0
LAYER
  2
画層177
 70
    0
 62
7
  6
CONTINUOUS
  0
LAYER
  2
画層178
 70
    0
 62
7
  6
CONTINUOUS
  0
LAYER
  2
画層179
 70
    0
 62
7
  6
CONTINUOUS
  0
LAYER
  2
画層180
 70
    0
 62
7
  6
CONTINUOUS
  0
LAYER
  2
画層181
 70
    0
 62
7
  6
CONTINUOUS
  0
LAYER
  2
画層182
 70
    0
 62
7
  6
CONTINUOUS
  0
LAYER
  2
画層183
 70
    0
 62
7
  6
CONTINUOUS
  0
LAYER
  2
画層184
 70
    0
 62
7
  6
CONTINUOUS
  0
LAYER
  2
画層185
 70
    0
 62
7
  6
CONTINUOUS
  0
LAYER
  2
画層186
 70
    0
 62
7
  6
CONTINUOUS
  0
LAYER
  2
画層187
 70
    0
 62
7
  6
CONTINUOUS
  0
LAYER
  2
画層188
 70
    0
 62
7
  6
CONTINUOUS
  0
LAYER
  2
画層189
 70
    0
 62
7
  6
CONTINUOUS
  0
LAYER
  2
画層190
 70
    0
 62
7
  6
CONTINUOUS
  0
LAYER
  2
画層191
 70
    0
 62
7
  6
CONTINUOUS
  0
LAYER
  2
画層192
 70
    0
 62
7
  6
CONTINUOUS
  0
LAYER
  2
画層193
 70
    0
 62
7
  6
CONTINUOUS
  0
LAYER
  2
画層194
 70
    0
 62
7
  6
CONTINUOUS
  0
LAYER
  2
画層195
 70
    0
 62
7
  6
CONTINUOUS
  0
LAYER
  2
画層196
 70
    0
 62
7
  6
CONTINUOUS
  0
LAYER
  2
画層197
 70
    0
 62
7
  6
CONTINUOUS
  0
LAYER
  2
画層198
 70
    0
 62
7
  6
CONTINUOUS
  0
LAYER
  2
画層199
 70
    0
 62
7
  6
CONTINUOUS
  0
LAYER
  2
画層200
 70
    0
 62
7
  6
CONTINUOUS
  0
LAYER
  2
画層201
 70
    0
 62
7
  6
CONTINUOUS
  0
LAYER
  2
画層202
 70
    0
 62
7
  6
CONTINUOUS
  0
LAYER
  2
画層203
 70
    0
 62
7
  6
CONTINUOUS
  0
LAYER
  2
画層204
 70
    0
 62
7
  6
CONTINUOUS
  0
LAYER
  2
画層205
 70
    0
 62
7
  6
CONTINUOUS
  0
LAYER
  2
画層206
 70
    0
 62
7
  6
CONTINUOUS
  0
LAYER
  2
画層207
 70
    0
 62
7
  6
CONTINUOUS
  0
LAYER
  2
画層208
 70
    0
 62
7
  6
CONTINUOUS
  0
LAYER
  2
画層209
 70
    0
 62
7
  6
CONTINUOUS
  0
LAYER
  2
画層210
 70
    0
 62
7
  6
CONTINUOUS
  0
LAYER
  2
画層211
 70
    0
 62
7
  6
CONTINUOUS
  0
LAYER
  2
画層212
 70
    0
 62
7
  6
CONTINUOUS
  0
LAYER
  2
画層213
 70
    0
 62
7
  6
CONTINUOUS
  0
LAYER
  2
画層214
 70
    0
 62
7
  6
CONTINUOUS
  0
LAYER
  2
画層215
 70
    0
 62
7
  6
CONTINUOUS
  0
LAYER
  2
画層216
 70
    0
 62
7
  6
CONTINUOUS
  0
LAYER
  2
画層217
 70
    0
 62
7
  6
CONTINUOUS
  0
LAYER
  2
画層218
 70
    0
 62
7
  6
CONTINUOUS
  0
LAYER
  2
画層219
 70
    0
 62
7
  6
CONTINUOUS
  0
LAYER
  2
画層220
 70
    0
 62
7
  6
CONTINUOUS
  0
LAYER
  2
画層221
 70
    0
 62
7
  6
CONTINUOUS
  0
LAYER
  2
画層222
 70
    0
 62
7
  6
CONTINUOUS
  0
LAYER
  2
画層223
 70
    0
 62
7
  6
CONTINUOUS
  0
LAYER
  2
画層224
 70
    0
 62
7
  6
CONTINUOUS
  0
LAYER
  2
画層225
 70
    0
 62
7
  6
CONTINUOUS
  0
LAYER
  2
画層226
 70
    0
 62
7
  6
CONTINUOUS
  0
LAYER
  2
画層227
 70
    0
 62
7
  6
CONTINUOUS
  0
LAYER
  2
画層228
 70
    0
 62
7
  6
CONTINUOUS
  0
LAYER
  2
画層229
 70
    0
 62
7
  6
CONTINUOUS
  0
LAYER
  2
画層230
 70
    0
 62
7
  6
CONTINUOUS
  0
LAYER
  2
画層231
 70
    0
 62
7
  6
CONTINUOUS
  0
LAYER
  2
画層232
 70
    0
 62
7
  6
CONTINUOUS
  0
LAYER
  2
画層233
 70
    0
 62
7
  6
CONTINUOUS
  0
LAYER
  2
画層234
 70
    0
 62
7
  6
CONTINUOUS
  0
LAYER
  2
画層235
 70
    0
 62
7
  6
CONTINUOUS
  0
LAYER
  2
画層236
 70
    0
 62
7
  6
CONTINUOUS
  0
LAYER
  2
画層237
 70
    0
 62
7
  6
CONTINUOUS
  0
LAYER
  2
画層238
 70
    0
 62
7
  6
CONTINUOUS
  0
LAYER
  2
画層239
 70
    0
 62
7
  6
CONTINUOUS
  0
LAYER
  2
画層240
 70
    0
 62
7
  6
CONTINUOUS
  0
LAYER
  2
画層241
 70
    0
 62
7
  6
CONTINUOUS
  0
LAYER
  2
画層242
 70
    0
 62
7
  6
CONTINUOUS
  0
LAYER
  2
画層243
 70
    0
 62
7
  6
CONTINUOUS
  0
LAYER
  2
画層244
 70
    0
 62
7
  6
CONTINUOUS
  0
LAYER
  2
画層245
 70
    0
 62
7
  6
CONTINUOUS
  0
LAYER
  2
画層246
 70
    0
 62
7
  6
CONTINUOUS
  0
LAYER
  2
画層247
 70
    0
 62
7
  6
CONTINUOUS
  0
LAYER
  2
画層248
 70
    0
 62
7
  6
CONTINUOUS
  0
LAYER
  2
画層249
 70
    0
 62
7
  6
CONTINUOUS
  0
LAYER
  2
画層250
 70
    0
 62
7
  6
CONTINUOUS
  0
LAYER
  2
画層251
 70
    0
 62
7
  6
CONTINUOUS
  0
LAYER
  2
画層252
 70
    0
 62
7
  6
CONTINUOUS
  0
LAYER
  2
画層253
 70
    0
 62
7
  6
CONTINUOUS
  0
LAYER
  2
画層254
 70
    0
 62
7
  6
CONTINUOUS
  0
LAYER
  2
画層255
 70
    0
 62
7
  6
CONTINUOUS
  0
ENDTAB
  0
TABLE
  2
STYLE
 70
     1
  0
STYLE
  2
Standard
 70
     0
 40
0.0
 41
1.0
 50
0.0
 71
     0
 42
3.2
  3
TXT
  4
BIGFONT
  0
STYLE
  2
Font_0
 70
     0
 40
0.0
 41
1.0
 50
0.0
 71
     0
 42
3.2
  3
txt
  4
BIGFONT
  0
ENDTAB
  0
ENDSEC
  0
SECTION
  2
BLOCKS
  0
BLOCK
  8
0
  2
GRP29170
 70
    0
 10
0
 20
0
 30
0.0
  3
GRP29170
  1

  0
ARC
  8
0
  6
CONTINUOUS
 62
1
 10
54.123064
 20
127.750014
 40
30
 50
90
 51
132.126416
  0
ENDBLK
  0
BLOCK
  8
0
  2
GRP29171
 70
    0
 10
0
 20
0
 30
0.0
  3
GRP29171
  1

  0
ARC
  8
0
  6
CONTINUOUS
 62
1
 10
54.123064
 20
170.250014
 40
30
 50
-132.126416
 51
-90
  0
ENDBLK
  0
BLOCK
  8
0
  2
GRP29167
 70
    0
 10
0
 20
0
 30
0.0
  3
GRP29167
  1

  0
LINE
  8
0
  6
CONTINUOUS
 62
1
 10
34.000005
 20
148.000014
 11
34.000005
 21
150.000014
  0
LINE
  8
0
  6
CONTINUOUS
 62
1
 10
68.680638
 20
140.250014
 11
54.123064
 21
140.250014
  0
ENDBLK
  0
BLOCK
  8
0
  2
GRP-7526
 70
    0
 10
0
 20
0
 30
0.0
  3
GRP-7526
  1

  0
ARC
  8
0
  6
CONTINUOUS
 62
1
 10
74.000005
 20
149.000014
 40
4
 50
-82.819244
 51
82.819244
  0
ARC
  8
0
  6
CONTINUOUS
 62
1
 10
74.000004
 20
149.000014
 40
4
 50
97.180751
 51
-97.180751
  0
ENDBLK
  0
BLOCK
  8
0
  2
GRP29149
 70
    0
 10
0
 20
0
 30
0.0
  3
GRP29149
  1

  0
LINE
  8
0
  6
CONTINUOUS
 62
1
 10
93.000005
 20
75.500012
 11
64.000005
 21
75.500012
  0
LINE
  8
0
  6
CONTINUOUS
 62
1
 10
93.000005
 20
66.500012
 11
64.000005
 21
66.500012
  0
ENDBLK
  0
BLOCK
  8
0
  2
GRP-7494
 70
    0
 10
0
 20
0
 30
0.0
  3
GRP-7494
  1

  0
ARC
  8
0
  6
CONTINUOUS
 62
1
 10
135.000005
 20
77.082775
 40
19
 50
-180
 51
-162.293681
  0
ENDBLK
  0
BLOCK
  8
0
  2
GRP-7493
 70
    0
 10
0
 20
0
 30
0.0
  3
GRP-7493
  1

  0
ARC
  8
0
  6
CONTINUOUS
 62
1
 10
135.000005
 20
64.91725
 40
19
 50
162.293681
 51
180
  0
ENDBLK
  0
BLOCK
  8
0
  2
GRP-7492
 70
    0
 10
0
 20
0
 30
0.0
  3
GRP-7492
  1

  0
ARC
  8
0
  6
CONTINUOUS
 62
1
 10
114.000005
 20
77.082775
 40
19
 50
-17.706319
 51
0
  0
ENDBLK
  0
BLOCK
  8
0
  2
GRP-7491
 70
    0
 10
0
 20
0
 30
0.0
  3
GRP-7491
  1

  0
ARC
  8
0
  6
CONTINUOUS
 62
1
 10
114.000005
 20
64.91725
 40
19
 50
0
 51
17.706319
  0
ENDBLK
  0
BLOCK
  8
0
  2
GRP-7490
 70
    0
 10
0
 20
0
 30
0.0
  3
GRP-7490
  1

  0
LINE
  8
0
  6
CENTER
 62
2
 10
107.000005
 20
82.000012
 11
107.000005
 21
88.000012
  0
LINE
  8
0
  6
CENTER
 62
2
 10
104.000005
 20
85.000012
 11
110.000005
 21
85.000012
  0
ENDBLK
  0
BLOCK
  8
0
  2
GRP-7489
 70
    0
 10
0
 20
0
 30
0.0
  3
GRP-7489
  1

  0
LINE
  8
0
  6
CENTER
 62
2
 10
137.000005
 20
82.000012
 11
137.000005
 21
88.000012
  0
LINE
  8
0
  6
CENTER
 62
2
 10
134.000005
 20
85.000012
 11
140.000005
 21
85.000012
  0
ENDBLK
  0
BLOCK
  8
0
  2
GRP-7488
 70
    0
 10
0
 20
0
 30
0.0
  3
GRP-7488
  1

  0
LINE
  8
0
  6
CENTER
 62
2
 10
107.000005
 20
54.000012
 11
107.000005
 21
60.000012
  0
LINE
  8
0
  6
CENTER
 62
2
 10
104.000005
 20
57.000012
 11
110.000005
 21
57.000012
  0
ENDBLK
  0
BLOCK
  8
0
  2
GRP-7487
 70
    0
 10
0
 20
0
 30
0.0
  3
GRP-7487
  1

  0
LINE
  8
0
  6
CENTER
 62
2
 10
137.000005
 20
54.000012
 11
137.000005
 21
60.000012
  0
LINE
  8
0
  6
CENTER
 62
2
 10
134.000005
 20
57.000012
 11
140.000005
 21
57.000012
  0
ENDBLK
  0
BLOCK
  8
0
  2
GRP-7385
 70
    0
 10
0
 20
0
 30
0.0
  3
GRP-7385
  1

  0
ARC
  8
0
  6
CONTINUOUS
 62
1
 10
135.000005
 20
155.082777
 40
19
 50
-180
 51
-162.293681
  0
ENDBLK
  0
BLOCK
  8
0
  2
GRP-7384
 70
    0
 10
0
 20
0
 30
0.0
  3
GRP-7384
  1

  0
ARC
  8
0
  6
CONTINUOUS
 62
1
 10
135.000005
 20
142.917252
 40
19
 50
162.293681
 51
180
  0
ENDBLK
  0
BLOCK
  8
0
  2
GRP-7383
 70
    0
 10
0
 20
0
 30
0.0
  3
GRP-7383
  1

  0
ARC
  8
0
  6
CONTINUOUS
 62
1
 10
114.000005
 20
155.082777
 40
19
 50
-17.706319
 51
0
  0
ENDBLK
  0
BLOCK
  8
0
  2
GRP-7382
 70
    0
 10
0
 20
0
 30
0.0
  3
GRP-7382
  1

  0
ARC
  8
0
  6
CONTINUOUS
 62
1
 10
114.000005
 20
142.917252
 40
19
 50
0
 51
17.706319
  0
ENDBLK
  0
BLOCK
  8
0
  2
GRP-7381
 70
    0
 10
0
 20
0
 30
0.0
  3
GRP-7381
  1

  0
LINE
  8
0
  6
CENTER
 62
2
 10
112.000005
 20
160.000014
 11
112.000005
 21
166.000014
  0
LINE
  8
0
  6
CENTER
 62
2
 10
109.000005
 20
163.000014
 11
115.000005
 21
163.000014
  0
ENDBLK
  0
BLOCK
  8
0
  2
GRP-7380
 70
    0
 10
0
 20
0
 30
0.0
  3
GRP-7380
  1

  0
LINE
  8
0
  6
CENTER
 62
2
 10
142.000005
 20
160.000014
 11
142.000005
 21
166.000014
  0
LINE
  8
0
  6
CENTER
 62
2
 10
139.000005
 20
163.000014
 11
145.000005
 21
163.000014
  0
ENDBLK
  0
BLOCK
  8
0
  2
GRP-7379
 70
    0
 10
0
 20
0
 30
0.0
  3
GRP-7379
  1

  0
LINE
  8
0
  6
CENTER
 62
2
 10
112.000005
 20
132.000014
 11
112.000005
 21
138.000014
  0
LINE
  8
0
  6
CENTER
 62
2
 10
109.000005
 20
135.000014
 11
115.000005
 21
135.000014
  0
ENDBLK
  0
BLOCK
  8
0
  2
GRP-7378
 70
    0
 10
0
 20
0
 30
0.0
  3
GRP-7378
  1

  0
LINE
  8
0
  6
CENTER
 62
2
 10
142.000005
 20
132.000014
 11
142.000005
 21
138.000014
  0
LINE
  8
0
  6
CENTER
 62
2
 10
139.000005
 20
135.000014
 11
145.000005
 21
135.000014
  0
ENDBLK
  0
BLOCK
  8
0
  2
GRP-7302
 70
    0
 10
0
 20
0
 30
0.0
  3
GRP-7302
  1

  0
LINE
  8
0
  6
CONTINUOUS
 62
1
 10
205.000005
 20
140.282216
 11
205.000005
 21
131.000014
  0
LINE
  8
0
  6
CONTINUOUS
 62
1
 10
205.000005
 20
157.717812
 11
205.000005
 21
167.000014
  0
ENDBLK
  0
BLOCK
  8
0
  2
GRP-9893
 70
    0
 10
0
 20
0
 30
0.0
  3
GRP-9893
  1

  0
LINE
  8
0
  6
CENTER
 62
2
 10
255
 20
130.000014
 11
255
 21
168.000014
  0
LINE
  8
0
  6
CENTER
 62
2
 10
236
 20
149.000014
 11
274
 21
149.000014
  0
ENDBLK
  0
BLOCK
  8
0
  2
GRP-9892
 70
    0
 10
0
 20
0
 30
0.0
  3
GRP-9892
  1

  0
LINE
  8
0
  6
CENTER
 62
2
 10
249.136
 20
157.000014
 11
260.864
 21
157.000014
  0
ENDBLK
  0
BLOCK
  8
0
  2
GRP-9891
 70
    0
 10
0
 20
0
 30
0.0
  3
GRP-9891
  1

  0
LINE
  8
0
  6
CENTER
 62
2
 10
249.136
 20
141.000014
 11
260.864
 21
141.000014
  0
ENDBLK
  0
BLOCK
  8
0
  2
GRP-9890
 70
    0
 10
0
 20
0
 30
0.0
  3
GRP-9890
  1

  0
ARC
  8
0
  6
CONTINUOUS
 62
1
 10
255
 20
143.780773
 40
1.738667
 50
128.299886
 51
51.700114
  0
ENDBLK
  0
BLOCK
  8
0
  2
GRP-9889
 70
    0
 10
0
 20
0
 30
0.0
  3
GRP-9889
  1

  0
ARC
  8
0
  6
CONTINUOUS
 62
1
 10
255
 20
149.000014
 40
16
 50
28.955024
 51
151.044976
  0
ARC
  8
0
  6
CONTINUOUS
 62
1
 10
255
 20
149.000014
 40
16
 50
-151.044976
 51
-28.955024
  0
ENDBLK
  0
BLOCK
  8
0
  2
GRP21507
 70
    0
 10
0
 20
0
 30
0.0
  3
GRP21507
  1

  0
LINE
  8
0
  6
CONTINUOUS
 62
3
 10
251.342494
 20
160.206437
 11
243
 21
171
  0
LINE
  8
0
  6
CONTINUOUS
 62
3
 10
251.342494
 20
160.206437
 11
249.751527
 21
161.418388
  0
LINE
  8
0
  6
CONTINUOUS
 62
3
 10
251.342494
 20
160.206437
 11
250.570652
 21
162.0515
  0
LINE
  8
0
  6
CONTINUOUS
 62
3
 10
243
 20
171
 11
225
 21
171
  0
ENDBLK
  0
BLOCK
  8
0
  2
GRP21525
 70
    0
 10
0
 20
0
 30
0.0
  3
GRP21525
  1

  0
LINE
  8
0
  6
CONTINUOUS
 62
1
 10
237
 20
131.000014
 11
273
 21
131.000014
  0
LINE
  8
0
  6
CONTINUOUS
 62
1
 10
273
 20
131.000014
 11
273
 21
167.000014
  0
LINE
  8
0
  6
CONTINUOUS
 62
1
 10
273
 20
167.000014
 11
237
 21
167.000014
  0
LINE
  8
0
  6
CONTINUOUS
 62
1
 10
237
 20
167.000014
 11
237
 21
131.000014
  0
ENDBLK
  0
BLOCK
  8
0
  2
GRP21526
 70
    0
 10
0
 20
0
 30
0.0
  3
GRP21526
  1

  0
ARC
  8
0
  6
CONTINUOUS
 62
1
 10
255
 20
149.000014
 40
20
 50
-154.158067
 51
-115.841933
  0
ARC
  8
0
  6
CONTINUOUS
 62
1
 10
255
 20
149.000014
 40
20
 50
115.841933
 51
154.158067
  0
ARC
  8
0
  6
CONTINUOUS
 62
1
 10
255
 20
149.000014
 40
20
 50
25.841933
 51
64.158067
  0
ARC
  8
0
  6
CONTINUOUS
 62
1
 10
255
 20
149.000014
 40
20
 50
-64.158067
 51
-25.841933
  0
ENDBLK
  0
BLOCK
  8
0
  2
GRP21527
 70
    0
 10
0
 20
0
 30
0.0
  3
GRP21527
  1

  0
LINE
  8
0
  6
CONTINUOUS
 62
3
 10
113.057273
 20
133.302315
 11
120
 21
120
  0
LINE
  8
0
  6
CONTINUOUS
 62
3
 10
113.057273
 20
133.302315
 11
114.41002
 21
131.829197
  0
LINE
  8
0
  6
CONTINUOUS
 62
3
 10
113.057273
 20
133.302315
 11
113.492228
 21
131.350184
  0
LINE
  8
0
  6
CONTINUOUS
 62
3
 10
120
 20
120
 11
162
 21
120
  0
ENDBLK
  0
BLOCK
  8
0
  2
GRP29173
 70
    0
 10
0
 20
0
 30
0.0
  3
GRP29173
  1

  0
LINE
  8
0
  6
CONTINUOUS
 62
3
 10
74.000005
 20
171
 11
74.000005
 21
177
  0
LINE
  8
0
  6
CONTINUOUS
 62
3
 10
112.000005
 20
171
 11
112.000005
 21
177
  0
LINE
  8
0
  6
CONTINUOUS
 62
3
 10
74.000005
 20
174
 11
112.000005
 21
174
  0
LINE
  8
0
  6
CONTINUOUS
 62
3
 10
74.000005
 20
174
 11
75.931856
 21
174.517638
  0
LINE
  8
0
  6
CONTINUOUS
 62
3
 10
74.000005
 20
174
 11
75.931856
 21
173.482362
  0
LINE
  8
0
  6
CONTINUOUS
 62
3
 10
112.000005
 20
174
 11
110.068153
 21
173.482362
  0
LINE
  8
0
  6
CONTINUOUS
 62
3
 10
112.000005
 20
174
 11
110.068153
 21
174.517638
  0
LINE
  8
0
  6
CONTINUOUS
 62
3
 10
142.000005
 20
171
 11
142.000005
 21
177
  0
LINE
  8
0
  6
CONTINUOUS
 62
3
 10
112.000005
 20
174
 11
142.000005
 21
174
  0
LINE
  8
0
  6
CONTINUOUS
 62
3
 10
112.000005
 20
174
 11
113.931856
 21
174.517638
  0
LINE
  8
0
  6
CONTINUOUS
 62
3
 10
112.000005
 20
174
 11
113.931856
 21
173.482362
  0
LINE
  8
0
  6
CONTINUOUS
 62
3
 10
142.000005
 20
174
 11
140.068153
 21
173.482362
  0
LINE
  8
0
  6
CONTINUOUS
 62
3
 10
142.000005
 20
174
 11
140.068153
 21
174.517638
  0
LINE
  8
0
  6
CONTINUOUS
 62
3
 10
220.000005
 20
171
 11
220.000005
 21
177
  0
LINE
  8
0
  6
CONTINUOUS
 62
3
 10
142.000005
 20
174
 11
220.000005
 21
174
  0
LINE
  8
0
  6
CONTINUOUS
 62
3
 10
142.000005
 20
174
 11
143.931856
 21
174.517638
  0
LINE
  8
0
  6
CONTINUOUS
 62
3
 10
142.000005
 20
174
 11
143.931856
 21
173.482362
  0
LINE
  8
0
  6
CONTINUOUS
 62
3
 10
220.000005
 20
174
 11
218.068153
 21
173.482362
  0
LINE
  8
0
  6
CONTINUOUS
 62
3
 10
220.000005
 20
174
 11
218.068153
 21
174.517638
  0
LINE
  8
0
  6
CONTINUOUS
 62
3
 10
30
 20
157.750014
 11
24
 21
157.750014
  0
LINE
  8
0
  6
CONTINUOUS
 62
3
 10
30
 20
140.250014
 11
24
 21
140.250014
  0
LINE
  8
0
  6
CONTINUOUS
 62
3
 10
27
 20
157.750014
 11
27
 21
140.250014
  0
LINE
  8
0
  6
CONTINUOUS
 62
3
 10
27
 20
157.750014
 11
27.517638
 21
155.818163
  0
LINE
  8
0
  6
CONTINUOUS
 62
3
 10
27
 20
157.750014
 11
26.482362
 21
155.818163
  0
LINE
  8
0
  6
CONTINUOUS
 62
3
 10
27
 20
140.250014
 11
26.482362
 21
142.181866
  0
LINE
  8
0
  6
CONTINUOUS
 62
3
 10
27
 20
140.250014
 11
27.517638
 21
142.181866
  0
LINE
  8
0
  6
CONTINUOUS
 62
3
 10
34.000005
 20
129
 11
34.000005
 21
123
  0
LINE
  8
0
  6
CONTINUOUS
 62
3
 10
74.000005
 20
129
 11
74.000005
 21
123
  0
LINE
  8
0
  6
CONTINUOUS
 62
3
 10
34.000005
 20
126
 11
74.000005
 21
126
  0
LINE
  8
0
  6
CONTINUOUS
 62
3
 10
34.000005
 20
126
 11
35.931856
 21
126.517638
  0
LINE
  8
0
  6
CONTINUOUS
 62
3
 10
34.000005
 20
126
 11
35.931856
 21
125.482362
  0
LINE
  8
0
  6
CONTINUOUS
 62
3
 10
74.000005
 20
126
 11
72.068153
 21
125.482362
  0
LINE
  8
0
  6
CONTINUOUS
 62
3
 10
74.000005
 20
126
 11
72.068153
 21
126.517638
  0
LINE
  8
0
  6
CONTINUOUS
 62
3
 10
220.000005
 20
129
 11
220.000005
 21
123
  0
LINE
  8
0
  6
CONTINUOUS
 62
3
 10
74.000005
 20
126
 11
220.000005
 21
126
  0
LINE
  8
0
  6
CONTINUOUS
 62
3
 10
74.000005
 20
126
 11
75.931856
 21
126.517638
  0
LINE
  8
0
  6
CONTINUOUS
 62
3
 10
74.000005
 20
126
 11
75.931856
 21
125.482362
  0
LINE
  8
0
  6
CONTINUOUS
 62
3
 10
220.000005
 20
126
 11
218.068153
 21
125.482362
  0
LINE
  8
0
  6
CONTINUOUS
 62
3
 10
220.000005
 20
126
 11
218.068153
 21
126.517638
  0
LINE
  8
0
  6
CONTINUOUS
 62
3
 10
34.000005
 20
99
 11
34.000005
 21
105
  0
LINE
  8
0
  6
CONTINUOUS
 62
3
 10
66.000005
 20
99
 11
66.000005
 21
105
  0
LINE
  8
0
  6
CONTINUOUS
 62
3
 10
34.000005
 20
102
 11
66.000005
 21
102
  0
LINE
  8
0
  6
CONTINUOUS
 62
3
 10
34.000005
 20
102
 11
35.931856
 21
102.517638
  0
LINE
  8
0
  6
CONTINUOUS
 62
3
 10
34.000005
 20
102
 11
35.931856
 21
101.482362
  0
LINE
  8
0
  6
CONTINUOUS
 62
3
 10
66.000005
 20
102
 11
64.068153
 21
101.482362
  0
LINE
  8
0
  6
CONTINUOUS
 62
3
 10
66.000005
 20
102
 11
64.068153
 21
102.517638
  0
LINE
  8
0
  6
CONTINUOUS
 62
3
 10
206.000005
 20
99
 11
206.000005
 21
105
  0
LINE
  8
0
  6
CONTINUOUS
 62
3
 10
66.000005
 20
102
 11
206.000005
 21
102
  0
LINE
  8
0
  6
CONTINUOUS
 62
3
 10
66.000005
 20
102
 11
67.931856
 21
102.517638
  0
LINE
  8
0
  6
CONTINUOUS
 62
3
 10
66.000005
 20
102
 11
67.931856
 21
101.482362
  0
LINE
  8
0
  6
CONTINUOUS
 62
3
 10
206.000005
 20
102
 11
204.068153
 21
101.482362
  0
LINE
  8
0
  6
CONTINUOUS
 62
3
 10
206.000005
 20
102
 11
204.068153
 21
102.517638
  0
LINE
  8
0
  6
CONTINUOUS
 62
3
 10
220.000005
 20
99
 11
220.000005
 21
105
  0
LINE
  8
0
  6
CONTINUOUS
 62
3
 10
206.000005
 20
102
 11
220.000005
 21
102
  0
LINE
  8
0
  6
CONTINUOUS
 62
3
 10
206.000005
 20
102
 11
207.931856
 21
102.517638
  0
LINE
  8
0
  6
CONTINUOUS
 62
3
 10
206.000005
 20
102
 11
207.931856
 21
101.482362
  0
LINE
  8
0
  6
CONTINUOUS
 62
3
 10
220.000005
 20
102
 11
218.068153
 21
101.482362
  0
LINE
  8
0
  6
CONTINUOUS
 62
3
 10
220.000005
 20
102
 11
218.068153
 21
102.517638
  0
LINE
  8
0
  6
CONTINUOUS
 62
3
 10
74.000005
 20
93
 11
74.000005
 21
99
  0
LINE
  8
0
  6
CONTINUOUS
 62
3
 10
107.000005
 20
93
 11
107.000005
 21
99
  0
LINE
  8
0
  6
CONTINUOUS
 62
3
 10
74.000005
 20
96
 11
107.000005
 21
96
  0
LINE
  8
0
  6
CONTINUOUS
 62
3
 10
74.000005
 20
96
 11
75.931856
 21
96.517638
  0
LINE
  8
0
  6
CONTINUOUS
 62
3
 10
74.000005
 20
96
 11
75.931856
 21
95.482362
  0
LINE
  8
0
  6
CONTINUOUS
 62
3
 10
107.000005
 20
96
 11
105.068153
 21
95.482362
  0
LINE
  8
0
  6
CONTINUOUS
 62
3
 10
107.000005
 20
96
 11
105.068153
 21
96.517638
  0
LINE
  8
0
  6
CONTINUOUS
 62
3
 10
137.000005
 20
93
 11
137.000005
 21
99
  0
LINE
  8
0
  6
CONTINUOUS
 62
3
 10
107.000005
 20
96
 11
137.000005
 21
96
  0
LINE
  8
0
  6
CONTINUOUS
 62
3
 10
107.000005
 20
96
 11
108.931856
 21
96.517638
  0
LINE
  8
0
  6
CONTINUOUS
 62
3
 10
107.000005
 20
96
 11
108.931856
 21
95.482362
  0
LINE
  8
0
  6
CONTINUOUS
 62
3
 10
137.000005
 20
96
 11
135.068153
 21
95.482362
  0
LINE
  8
0
  6
CONTINUOUS
 62
3
 10
137.000005
 20
96
 11
135.068153
 21
96.517638
  0
LINE
  8
0
  6
CONTINUOUS
 62
3
 10
220.000005
 20
93
 11
220.000005
 21
99
  0
LINE
  8
0
  6
CONTINUOUS
 62
3
 10
137.000005
 20
96
 11
220.000005
 21
96
  0
LINE
  8
0
  6
CONTINUOUS
 62
3
 10
137.000005
 20
96
 11
138.931856
 21
96.517638
  0
LINE
  8
0
  6
CONTINUOUS
 62
3
 10
137.000005
 20
96
 11
138.931856
 21
95.482362
  0
LINE
  8
0
  6
CONTINUOUS
 62
3
 10
220.000005
 20
96
 11
218.068153
 21
95.482362
  0
LINE
  8
0
  6
CONTINUOUS
 62
3
 10
220.000005
 20
96
 11
218.068153
 21
96.517638
  0
LINE
  8
0
  6
CONTINUOUS
 62
3
 10
30
 20
75.500012
 11
24
 21
75.500012
  0
LINE
  8
0
  6
CONTINUOUS
 62
3
 10
30
 20
66.500012
 11
24
 21
66.500012
  0
LINE
  8
0
  6
CONTINUOUS
 62
3
 10
27
 20
75.500012
 11
27
 21
66.500012
  0
LINE
  8
0
  6
CONTINUOUS
 62
3
 10
27
 20
75.500012
 11
27.517638
 21
73.568161
  0
LINE
  8
0
  6
CONTINUOUS
 62
3
 10
27
 20
75.500012
 11
26.482362
 21
73.568161
  0
LINE
  8
0
  6
CONTINUOUS
 62
3
 10
27
 20
66.500012
 11
26.482362
 21
68.431864
  0
LINE
  8
0
  6
CONTINUOUS
 62
3
 10
27
 20
66.500012
 11
27.517638
 21
68.431864
  0
LINE
  8
0
  6
CONTINUOUS
 62
3
 10
30
 20
82.600012
 11
18
 21
82.600012
  0
LINE
  8
0
  6
CONTINUOUS
 62
3
 10
30
 20
59.400012
 11
18
 21
59.400012
  0
LINE
  8
0
  6
CONTINUOUS
 62
3
 10
21
 20
82.600012
 11
21
 21
59.400012
  0
LINE
  8
0
  6
CONTINUOUS
 62
3
 10
21
 20
82.600012
 11
21.517638
 21
80.668161
  0
LINE
  8
0
  6
CONTINUOUS
 62
3
 10
21
 20
82.600012
 11
20.482362
 21
80.668161
  0
LINE
  8
0
  6
CONTINUOUS
 62
3
 10
21
 20
59.400012
 11
20.482362
 21
61.331864
  0
LINE
  8
0
  6
CONTINUOUS
 62
3
 10
21
 20
59.400012
 11
21.517638
 21
61.331864
  0
LINE
  8
0
  6
CONTINUOUS
 62
3
 10
34.000005
 20
45
 11
34.000005
 21
39
  0
LINE
  8
0
  6
CONTINUOUS
 62
3
 10
220.000005
 20
45
 11
220.000005
 21
39
  0
LINE
  8
0
  6
CONTINUOUS
 62
3
 10
34.000005
 20
42
 11
220.000005
 21
42
  0
LINE
  8
0
  6
CONTINUOUS
 62
3
 10
34.000005
 20
42
 11
35.931856
 21
42.517638
  0
LINE
  8
0
  6
CONTINUOUS
 62
3
 10
34.000005
 20
42
 11
35.931856
 21
41.482362
  0
LINE
  8
0
  6
CONTINUOUS
 62
3
 10
220.000005
 20
42
 11
218.068153
 21
41.482362
  0
LINE
  8
0
  6
CONTINUOUS
 62
3
 10
220.000005
 20
42
 11
218.068153
 21
42.517638
  0
LINE
  8
0
  6
CONTINUOUS
 62
3
 10
228
 20
85.000012
 11
234
 21
85.000012
  0
LINE
  8
0
  6
CONTINUOUS
 62
3
 10
228
 20
57.000012
 11
234
 21
57.000012
  0
LINE
  8
0
  6
CONTINUOUS
 62
3
 10
231
 20
85.000012
 11
231
 21
57.000012
  0
LINE
  8
0
  6
CONTINUOUS
 62
3
 10
231
 20
85.000012
 11
231.517638
 21
83.068161
  0
LINE
  8
0
  6
CONTINUOUS
 62
3
 10
231
 20
85.000012
 11
230.482362
 21
83.068161
  0
LINE
  8
0
  6
CONTINUOUS
 62
3
 10
231
 20
57.000012
 11
230.482362
 21
58.931864
  0
LINE
  8
0
  6
CONTINUOUS
 62
3
 10
231
 20
57.000012
 11
231.517638
 21
58.931864
  0
LINE
  8
0
  6
CONTINUOUS
 62
3
 10
102
 20
85.000012
 11
96
 21
85.000012
  0
LINE
  8
0
  6
CONTINUOUS
 62
3
 10
102
 20
57.000012
 11
96
 21
57.000012
  0
LINE
  8
0
  6
CONTINUOUS
 62
3
 10
99
 20
85.000012
 11
99
 21
57.000012
  0
LINE
  8
0
  6
CONTINUOUS
 62
3
 10
99
 20
85.000012
 11
99.517638
 21
83.068161
  0
LINE
  8
0
  6
CONTINUOUS
 62
3
 10
99
 20
85.000012
 11
98.482362
 21
83.068161
  0
LINE
  8
0
  6
CONTINUOUS
 62
3
 10
99
 20
57.000012
 11
98.482362
 21
58.931864
  0
LINE
  8
0
  6
CONTINUOUS
 62
3
 10
99
 20
57.000012
 11
99.517638
 21
58.931864
  0
LINE
  8
0
  6
CONTINUOUS
 62
3
 10
105
 20
163.000014
 11
99
 21
163.000014
  0
LINE
  8
0
  6
CONTINUOUS
 62
3
 10
105
 20
135.000014
 11
99
 21
135.000014
  0
LINE
  8
0
  6
CONTINUOUS
 62
3
 10
102
 20
163.000014
 11
102
 21
135.000014
  0
LINE
  8
0
  6
CONTINUOUS
 62
3
 10
102
 20
163.000014
 11
102.517638
 21
161.068163
  0
LINE
  8
0
  6
CONTINUOUS
 62
3
 10
102
 20
163.000014
 11
101.482362
 21
161.068163
  0
LINE
  8
0
  6
CONTINUOUS
 62
3
 10
102
 20
135.000014
 11
101.482362
 21
136.931866
  0
LINE
  8
0
  6
CONTINUOUS
 62
3
 10
102
 20
135.000014
 11
102.517638
 21
136.931866
  0
LINE
  8
0
  6
CONTINUOUS
 62
3
 10
234
 20
157.000014
 11
228
 21
157.000014
  0
LINE
  8
0
  6
CONTINUOUS
 62
3
 10
234
 20
141.000014
 11
228
 21
141.000014
  0
LINE
  8
0
  6
CONTINUOUS
 62
3
 10
231
 20
157.000014
 11
231
 21
141.000014
  0
LINE
  8
0
  6
CONTINUOUS
 62
3
 10
231
 20
157.000014
 11
231.517638
 21
155.068163
  0
LINE
  8
0
  6
CONTINUOUS
 62
3
 10
231
 20
157.000014
 11
230.482362
 21
155.068163
  0
LINE
  8
0
  6
CONTINUOUS
 62
3
 10
231
 20
141.000014
 11
230.482362
 21
142.931866
  0
LINE
  8
0
  6
CONTINUOUS
 62
3
 10
231
 20
141.000014
 11
231.517638
 21
142.931866
  0
LINE
  8
0
  6
CONTINUOUS
 62
3
 10
237
 20
129
 11
237
 21
123
  0
LINE
  8
0
  6
CONTINUOUS
 62
3
 10
273
 20
129
 11
273
 21
123
  0
LINE
  8
0
  6
CONTINUOUS
 62
3
 10
237
 20
126
 11
273
 21
126
  0
LINE
  8
0
  6
CONTINUOUS
 62
3
 10
237
 20
126
 11
238.931852
 21
126.517638
  0
LINE
  8
0
  6
CONTINUOUS
 62
3
 10
237
 20
126
 11
238.931852
 21
125.482362
  0
LINE
  8
0
  6
CONTINUOUS
 62
3
 10
273
 20
126
 11
271.068148
 21
125.482362
  0
LINE
  8
0
  6
CONTINUOUS
 62
3
 10
273
 20
126
 11
271.068148
 21
126.517638
  0
LINE
  8
0
  6
CONTINUOUS
 62
3
 10
276
 20
167.000014
 11
282
 21
167.000014
  0
LINE
  8
0
  6
CONTINUOUS
 62
3
 10
276
 20
131.000014
 11
282
 21
131.000014
  0
LINE
  8
0
  6
CONTINUOUS
 62
3
 10
279
 20
167.000014
 11
279
 21
131.000014
  0
LINE
  8
0
  6
CONTINUOUS
 62
3
 10
279
 20
167.000014
 11
279.517638
 21
165.068163
  0
LINE
  8
0
  6
CONTINUOUS
 62
3
 10
279
 20
167.000014
 11
278.482362
 21
165.068163
  0
LINE
  8
0
  6
CONTINUOUS
 62
3
 10
279
 20
131.000014
 11
278.482362
 21
132.931866
  0
LINE
  8
0
  6
CONTINUOUS
 62
3
 10
279
 20
131.000014
 11
279.517638
 21
132.931866
  0
ENDBLK
  0
ENDSEC
  0
SECTION
  2
ENTITIES
  0
INSERT
  8
0
  6
BYLAYER
  2
GRP29170
 10
0
 20
0
 30
0.0
  0
INSERT
  8
0
  6
BYLAYER
  2
GRP29171
 10
0
 20
0
 30
0.0
  0
INSERT
  8
0
  6
BYLAYER
  2
GRP29167
 10
0
 20
0
 30
0.0
  0
INSERT
  8
0
  6
BYLAYER
  2
GRP-7526
 10
0
 20
0
 30
0.0
  0
INSERT
  8
0
  6
BYLAYER
  2
GRP29149
 10
0
 20
0
 30
0.0
  0
INSERT
  8
0
  6
BYLAYER
  2
GRP-7494
 10
0
 20
0
 30
0.0
  0
INSERT
  8
0
  6
BYLAYER
  2
GRP-7493
 10
0
 20
0
 30
0.0
  0
INSERT
  8
0
  6
BYLAYER
  2
GRP-7492
 10
0
 20
0
 30
0.0
  0
INSERT
  8
0
  6
BYLAYER
  2
GRP-7491
 10
0
 20
0
 30
0.0
  0
INSERT
  8
0
  6
BYLAYER
  2
GRP-7490
 10
0
 20
0
 30
0.0
  0
INSERT
  8
0
  6
BYLAYER
  2
GRP-7489
 10
0
 20
0
 30
0.0
  0
INSERT
  8
0
  6
BYLAYER
  2
GRP-7488
 10
0
 20
0
 30
0.0
  0
INSERT
  8
0
  6
BYLAYER
  2
GRP-7487
 10
0
 20
0
 30
0.0
  0
INSERT
  8
0
  6
BYLAYER
  2
GRP-7385
 10
0
 20
0
 30
0.0
  0
INSERT
  8
0
  6
BYLAYER
  2
GRP-7384
 10
0
 20
0
 30
0.0
  0
INSERT
  8
0
  6
BYLAYER
  2
GRP-7383
 10
0
 20
0
 30
0.0
  0
INSERT
  8
0
  6
BYLAYER
  2
GRP-7382
 10
0
 20
0
 30
0.0
  0
INSERT
  8
0
  6
BYLAYER
  2
GRP-7381
 10
0
 20
0
 30
0.0
  0
INSERT
  8
0
  6
BYLAYER
  2
GRP-7380
 10
0
 20
0
 30
0.0
  0
INSERT
  8
0
  6
BYLAYER
  2
GRP-7379
 10
0
 20
0
 30
0.0
  0
INSERT
  8
0
  6
BYLAYER
  2
GRP-7378
 10
0
 20
0
 30
0.0
  0
INSERT
  8
0
  6
BYLAYER
  2
GRP-7302
 10
0
 20
0
 30
0.0
  0
INSERT
  8
0
  6
BYLAYER
  2
GRP-9893
 10
0
 20
0
 30
0.0
  0
INSERT
  8
0
  6
BYLAYER
  2
GRP-9892
 10
0
 20
0
 30
0.0
  0
INSERT
  8
0
  6
BYLAYER
  2
GRP-9891
 10
0
 20
0
 30
0.0
  0
INSERT
  8
0
  6
BYLAYER
  2
GRP-9890
 10
0
 20
0
 30
0.0
  0
INSERT
  8
0
  6
BYLAYER
  2
GRP-9889
 10
0
 20
0
 30
0.0
  0
INSERT
  8
0
  6
BYLAYER
  2
GRP21507
 10
0
 20
0
 30
0.0
  0
INSERT
  8
0
  6
BYLAYER
  2
GRP21525
 10
0
 20
0
 30
0.0
  0
INSERT
  8
0
  6
BYLAYER
  2
GRP21526
 10
0
 20
0
 30
0.0
  0
INSERT
  8
0
  6
BYLAYER
  2
GRP21527
 10
0
 20
0
 30
0.0
  0
INSERT
  8
0
  6
BYLAYER
  2
GRP29173
 10
0
 20
0
 30
0.0
  0
LINE
  8
0
  6
CONTINUOUS
 62
1
 10
69.050005
 20
57.500012
 11
68.750005
 21
57.800012
  0
LINE
  8
0
  6
CONTINUOUS
 62
1
 10
74.000005
 20
57.500012
 11
69.050005
 21
57.500012
  0
LINE
  8
0
  6
CONTINUOUS
 62
1
 10
78.950005
 20
57.500012
 11
79.250005
 21
57.800012
  0
LINE
  8
0
  6
CONTINUOUS
 62
1
 10
74.000005
 20
57.500012
 11
78.950005
 21
57.500012
  0
LINE
  8
0
  6
CONTINUOUS
 62
1
 10
74.000005
 20
85.700012
 11
74.500005
 21
85.700012
  0
LINE
  8
0
  6
CONTINUOUS
 62
1
 10
74.500005
 20
85.700012
 11
74.500005
 21
86.700012
  0
LINE
  8
0
  6
CONTINUOUS
 62
1
 10
74.500005
 20
86.700012
 11
78.000005
 21
86.700012
  0
LINE
  8
0
  6
CONTINUOUS
 62
1
 10
78.500005
 20
86.200012
 11
78.500005
 21
84.200012
  0
LINE
  8
0
  6
CONTINUOUS
 62
1
 10
75.650005
 20
53.700012
 11
74.000005
 21
53.700012
  0
LINE
  8
0
  6
CONTINUOUS
 62
1
 10
78.000005
 20
86.700012
 11
78.500005
 21
86.200012
  0
LINE
  8
0
  6
CONTINUOUS
 62
1
 10
78.500005
 20
86.200012
 11
74.500005
 21
86.200012
  0
LINE
  8
0
  6
CONTINUOUS
 62
1
 10
76.000005
 20
54.050012
 11
75.650005
 21
53.700012
  0
LINE
  8
0
  6
CONTINUOUS
 62
1
 10
76.000005
 20
54.050012
 11
74.000005
 21
54.050012
  0
LINE
  8
0
  6
CONTINUOUS
 62
1
 10
74.000005
 20
85.700012
 11
73.500005
 21
85.700012
  0
LINE
  8
0
  6
CONTINUOUS
 62
1
 10
73.500005
 20
85.700012
 11
73.500005
 21
86.700012
  0
LINE
  8
0
  6
CONTINUOUS
 62
1
 10
73.500005
 20
86.700012
 11
70.000005
 21
86.700012
  0
LINE
  8
0
  6
CONTINUOUS
 62
1
 10
69.500005
 20
86.200012
 11
69.500005
 21
84.200012
  0
LINE
  8
0
  6
CONTINUOUS
 62
1
 10
72.350005
 20
53.700012
 11
74.000005
 21
53.700012
  0
LINE
  8
0
  6
CONTINUOUS
 62
1
 10
70.000005
 20
86.700012
 11
69.500005
 21
86.200012
  0
LINE
  8
0
  6
CONTINUOUS
 62
1
 10
69.500005
 20
86.200012
 11
73.500005
 21
86.200012
  0
LINE
  8
0
  6
CONTINUOUS
 62
1
 10
72.000005
 20
54.050012
 11
72.350005
 21
53.700012
  0
LINE
  8
0
  6
CONTINUOUS
 62
1
 10
72.000005
 20
54.050012
 11
74.000005
 21
54.050012
  0
LINE
  8
0
  6
CONTINUOUS
 62
1
 10
79.250005
 20
83.900012
 11
79.250005
 21
83.200012
  0
LINE
  8
0
  6
CONTINUOUS
 62
1
 10
78.950005
 20
84.200012
 11
79.250005
 21
83.900012
  0
LINE
  8
0
  6
CONTINUOUS
 62
1
 10
74.000005
 20
84.200012
 11
78.950005
 21
84.200012
  0
LINE
  8
0
  6
CONTINUOUS
 62
1
 10
68.750005
 20
83.900012
 11
68.750005
 21
83.200012
  0
LINE
  8
0
  6
CONTINUOUS
 62
1
 10
69.050005
 20
84.200012
 11
68.750005
 21
83.900012
  0
LINE
  8
0
  6
CONTINUOUS
 62
1
 10
74.000005
 20
84.200012
 11
69.050005
 21
84.200012
  0
LINE
  8
0
  6
CONTINUOUS
 62
1
 10
69.958553
 20
54.889329
 11
70.979279
 21
54.300012
  0
LINE
  8
0
  6
CONTINUOUS
 62
1
 10
78.041457
 20
54.889329
 11
77.020731
 21
54.300012
  0
LINE
  8
0
  6
CONTINUOUS
 62
1
 10
69.958553
 20
56.910696
 11
69.958553
 21
54.889329
  0
LINE
  8
0
  6
CONTINUOUS
 62
1
 10
78.041457
 20
54.889329
 11
78.041457
 21
56.910696
  0
LINE
  8
0
  6
CONTINUOUS
 62
1
 10
34.000005
 20
72.500012
 11
34.000005
 21
69.500012
  0
LINE
  8
0
  6
CONTINUOUS
 62
1
 10
34.000005
 20
71.268878
 11
64.000005
 21
71.268878
  0
LINE
  8
0
  6
CONTINUOUS
 62
1
 10
64.000005
 20
71.268878
 11
64.000005
 21
66.500012
  0
LINE
  8
0
  6
CENTER
 62
2
 10
32.000005
 20
71.000012
 11
34.000005
 21
71.000012
  0
LINE
  8
0
  6
CONTINUOUS
 62
1
 10
34.000005
 20
71.000012
 11
64.000005
 21
71.000012
  0
ARC
  8
0
  6
CONTINUOUS
 62
1
 10
63.500005
 20
69.000012
 40
0.5
 50
0
 51
90
  0
LINE
  8
0
  6
CONTINUOUS
 62
1
 10
63.500005
 20
69.500012
 11
34.000005
 21
69.500012
  0
ARC
  8
0
  6
CONTINUOUS
 62
1
 10
52.666925
 20
49.014994
 40
30
 50
117.32554
 51
128.479215
  0
ARC
  8
0
  6
CONTINUOUS
 62
1
 10
52.666925
 20
92.98503
 40
30
 50
-128.479215
 51
-117.32554
  0
LINE
  8
0
  6
CONTINUOUS
 62
1
 10
38.895557
 20
66.332649
 11
64.000005
 21
66.500012
  0
LINE
  8
0
  6
CONTINUOUS
 62
1
 10
64.000005
 20
154.750014
 11
67.000005
 21
157.750014
  0
LINE
  8
0
  6
CONTINUOUS
 62
1
 10
63.500005
 20
149.598091
 11
34.000005
 21
149.598091
  0
LINE
  8
0
  6
CONTINUOUS
 62
1
 10
34.000005
 20
150.000014
 11
63.500005
 21
150.000014
  0
LINE
  8
0
  6
CONTINUOUS
 62
1
 10
38.895557
 20
144.401938
 11
63.000005
 21
144.401938
  0
ARC
  8
0
  6
CONTINUOUS
 62
1
 10
63.500005
 20
150.500014
 40
0.5
 50
-90
 51
0
  0
ARC
  8
0
  6
CONTINUOUS
 62
1
 10
63.500005
 20
150.098091
 40
0.5
 50
-90
 51
0
  0
LINE
  8
0
  6
CONTINUOUS
 62
1
 10
64.000005
 20
145.401938
 11
64.000005
 21
154.750014
  0
ARC
  8
0
  6
CONTINUOUS
 62
1
 10
63.000005
 20
145.401938
 40
1
 50
-90
 51
0
  0
LINE
  8
0
  6
CONTINUOUS
 62
1
 10
88.500005
 20
88.991935
 11
88.517327
 21
89.000012
  0
LINE
  8
0
  6
CONTINUOUS
 62
1
 10
88.500005
 20
53.00809
 11
88.517327
 21
53.000012
  0
LINE
  8
0
  6
CONTINUOUS
 62
1
 10
83.500005
 20
82.600012
 11
67.500005
 21
82.600012
  0
LINE
  8
0
  6
CONTINUOUS
 62
1
 10
67.500005
 20
59.400012
 11
83.500005
 21
59.400012
  0
ARC
  8
0
  6
CONTINUOUS
 62
1
 10
83.500005
 20
87.600012
 40
5
 50
-90
 51
0
  0
ARC
  8
0
  6
CONTINUOUS
 62
1
 10
83.500005
 20
54.400012
 40
5
 50
0
 51
90
  0
LINE
  8
0
  6
CONTINUOUS
 62
1
 10
93.000005
 20
75.600012
 11
66.000005
 21
75.600012
  0
LINE
  8
0
  6
CONTINUOUS
 62
1
 10
93.000005
 20
66.400012
 11
66.000005
 21
66.400012
  0
LINE
  8
0
  6
CONTINUOUS
 62
1
 10
67.500005
 20
82.600012
 11
66.000005
 21
81.100012
  0
LINE
  8
0
  6
CONTINUOUS
 62
1
 10
66.000005
 20
60.900012
 11
67.500005
 21
59.400012
  0
LINE
  8
0
  6
CONTINUOUS
 62
1
 10
66.000005
 20
75.600012
 11
66.000005
 21
81.100012
  0
LINE
  8
0
  6
CONTINUOUS
 62
1
 10
88.500005
 20
75.600012
 11
88.500005
 21
88.991935
  0
LINE
  8
0
  6
CONTINUOUS
 62
1
 10
93.000005
 20
66.400012
 11
93.000005
 21
75.600012
  0
LINE
  8
0
  6
CONTINUOUS
 62
1
 10
88.500005
 20
66.400012
 11
88.500005
 21
53.00809
  0
LINE
  8
0
  6
CONTINUOUS
 62
1
 10
66.000005
 20
66.400012
 11
66.000005
 21
60.900012
  0
LINE
  8
0
  6
CONTINUOUS
 62
1
 10
68.680638
 20
157.750014
 11
54.123064
 21
157.750014
  0
CIRCLE
  8
0
  6
CONTINUOUS
 62
1
 10
74.000005
 20
149.000014
 40
5.5
  0
LINE
  8
0
  6
CENTER
 62
2
 10
74.000005
 20
141
 11
74.000005
 21
156
  0
CIRCLE
  8
0
  6
CONTINUOUS
 62
1
 10
74.000005
 20
149.000014
 40
4.5
  0
LINE
  8
0
  6
CONTINUOUS
 62
1
 10
73.500005
 20
153.47215
 11
73.500005
 21
144.527878
  0
LINE
  8
0
  6
CONTINUOUS
 62
1
 10
74.500005
 20
153.47215
 11
74.500005
 21
144.527878
  0
LINE
  8
0
  6
CONTINUOUS
 62
1
 10
64.000005
 20
75.500012
 11
38.895557
 21
75.667375
  0
LINE
  8
0
  6
CONTINUOUS
 62
1
 10
70.000005
 20
82.600012
 11
70.000005
 21
83.200012
  0
LINE
  8
0
  6
CONTINUOUS
 62
1
 10
78.000005
 20
82.600012
 11
78.000005
 21
83.200012
  0
LINE
  8
0
  6
CONTINUOUS
 62
1
 10
74.000005
 20
83.200012
 11
68.750005
 21
83.200012
  0
LINE
  8
0
  6
CONTINUOUS
 62
1
 10
74.000005
 20
83.200012
 11
79.250005
 21
83.200012
  0
LINE
  8
0
  6
CONTINUOUS
 62
1
 10
68.750005
 20
59.400012
 11
68.750005
 21
57.800012
  0
LINE
  8
0
  6
CONTINUOUS
 62
1
 10
79.250005
 20
59.400012
 11
79.250005
 21
57.800012
  0
LINE
  8
0
  6
CONTINUOUS
 62
1
 10
74.000005
 20
54.300012
 11
70.979279
 21
54.300012
  0
LINE
  8
0
  6
CONTINUOUS
 62
1
 10
74.000005
 20
54.300012
 11
77.020731
 21
54.300012
  0
LINE
  8
0
  6
CENTER
 62
2
 10
74.000005
 20
51
 11
74.000005
 21
90
  0
LINE
  8
0
  6
CONTINUOUS
 62
1
 10
72.000005
 20
54.300012
 11
72.000005
 21
54.050012
  0
LINE
  8
0
  6
CONTINUOUS
 62
1
 10
76.000005
 20
54.300012
 11
76.000005
 21
54.050012
  0
LINE
  8
0
  6
CONTINUOUS
 62
1
 10
68.750005
 20
57.800012
 11
79.250005
 21
57.800012
  0
ARC
  8
0
  6
CONTINUOUS
 62
1
 10
74.000005
 20
53.740888
 40
3.759124
 50
57.482831
 51
122.517169
  0
ARC
  8
0
  6
CONTINUOUS
 62
1
 10
74.000005
 20
58.059137
 40
3.759124
 50
-122.517169
 51
-57.482831
  0
ARC
  8
0
  6
CONTINUOUS
 62
1
 10
70.968916
 20
56.339238
 40
1.160775
 50
29.492373
 51
90
  0
ARC
  8
0
  6
CONTINUOUS
 62
1
 10
77.031094
 20
56.339238
 40
1.160775
 50
90
 51
150.507627
  0
LINE
  8
0
  6
CONTINUOUS
 62
1
 10
70.968916
 20
57.500012
 11
69.958553
 21
56.910696
  0
LINE
  8
0
  6
CONTINUOUS
 62
1
 10
77.031094
 20
57.500012
 11
78.041457
 21
56.910696
  0
LINE
  8
0
  6
CONTINUOUS
 62
1
 10
71.979279
 20
56.910696
 11
71.979279
 21
54.889329
  0
LINE
  8
0
  6
CONTINUOUS
 62
1
 10
76.020731
 20
56.910696
 11
76.020731
 21
54.889329
  0
ARC
  8
0
  6
CONTINUOUS
 62
1
 10
70.968916
 20
55.460787
 40
1.160775
 50
-90
 51
-29.492373
  0
ARC
  8
0
  6
CONTINUOUS
 62
1
 10
77.031094
 20
55.460787
 40
1.160775
 50
-150.507627
 51
-90
  0
LINE
  8
0
  6
CONTINUOUS
 62
1
 10
116.000005
 20
64.91725
 11
116.000005
 21
53.000012
  0
LINE
  8
0
  6
CONTINUOUS
 62
1
 10
116.000005
 20
77.082775
 11
116.000005
 21
89.000012
  0
LINE
  8
0
  6
CONTINUOUS
 62
1
 10
133.000005
 20
64.91725
 11
133.000005
 21
53.000012
  0
LINE
  8
0
  6
CONTINUOUS
 62
1
 10
133.000005
 20
77.082775
 11
133.000005
 21
89.000012
  0
ARC
  8
0
  6
CONTINUOUS
 62
1
 10
115.947446
 20
71.000012
 40
1
 50
-17.706319
 51
17.706319
  0
ARC
  8
0
  6
CONTINUOUS
 62
1
 10
133.052564
 20
71.000012
 40
1
 50
162.293681
 51
-162.293681
  0
CIRCLE
  8
0
  6
CONTINUOUS
 62
2
 10
107.000005
 20
85.000012
 40
1.65
  0
CIRCLE
  8
0
  6
CONTINUOUS
 62
1
 10
107.000005
 20
85.000012
 40
2
  0
CIRCLE
  8
0
  6
CONTINUOUS
 62
2
 10
137.000005
 20
85.000012
 40
1.65
  0
CIRCLE
  8
0
  6
CONTINUOUS
 62
1
 10
137.000005
 20
85.000012
 40
2
  0
CIRCLE
  8
0
  6
CONTINUOUS
 62
2
 10
107.000005
 20
57.000012
 40
1.65
  0
CIRCLE
  8
0
  6
CONTINUOUS
 62
1
 10
107.000005
 20
57.000012
 40
2
  0
CIRCLE
  8
0
  6
CONTINUOUS
 62
2
 10
137.000005
 20
57.000012
 40
1.65
  0
CIRCLE
  8
0
  6
CONTINUOUS
 62
1
 10
137.000005
 20
57.000012
 40
2
  0
LINE
  8
0
  6
CONTINUOUS
 62
1
 10
158.000005
 20
89.000012
 11
158.000005
 21
81.71781
  0
LINE
  8
0
  6
CONTINUOUS
 62
1
 10
160.000005
 20
79.71781
 11
206.000005
 21
79.71781
  0
LINE
  8
0
  6
CONTINUOUS
 62
1
 10
206.000005
 20
62.282215
 11
160.000005
 21
62.282215
  0
LINE
  8
0
  6
CONTINUOUS
 62
1
 10
158.000005
 20
60.282215
 11
158.000005
 21
53.000012
  0
ARC
  8
0
  6
CONTINUOUS
 62
1
 10
160.000005
 20
81.71781
 40
2
 50
180
 51
-90
  0
ARC
  8
0
  6
CONTINUOUS
 62
1
 10
160.000005
 20
60.282215
 40
2
 50
90
 51
180
  0
LINE
  8
0
  6
CONTINUOUS
 62
1
 10
66.000005
 20
141.500014
 11
66.000005
 21
156.500014
  0
LINE
  8
0
  6
CONTINUOUS
 62
1
 10
66.000005
 20
156.500014
 11
88.517327
 21
167.000014
  0
LINE
  8
0
  6
CONTINUOUS
 62
1
 10
88.517327
 20
167.000014
 11
206.000005
 21
167.000014
  0
LINE
  8
0
  6
CONTINUOUS
 62
1
 10
206.000005
 20
131.000014
 11
88.517327
 21
131.000014
  0
LINE
  8
0
  6
CONTINUOUS
 62
1
 10
88.517327
 20
131.000014
 11
66.000005
 21
141.500014
  0
LINE
  8
0
  6
CONTINUOUS
 62
1
 10
88.500005
 20
166.991937
 11
88.500005
 21
131.008092
  0
LINE
  8
0
  6
CONTINUOUS
 62
1
 10
116.000005
 20
142.917252
 11
116.000005
 21
131.000014
  0
LINE
  8
0
  6
CONTINUOUS
 62
1
 10
116.000005
 20
155.082777
 11
116.000005
 21
167.000014
  0
LINE
  8
0
  6
CONTINUOUS
 62
1
 10
133.000005
 20
142.917252
 11
133.000005
 21
131.000014
  0
LINE
  8
0
  6
CONTINUOUS
 62
1
 10
133.000005
 20
155.082777
 11
133.000005
 21
167.000014
  0
ARC
  8
0
  6
CONTINUOUS
 62
1
 10
115.947446
 20
149.000014
 40
1
 50
-17.706319
 51
17.706319
  0
ARC
  8
0
  6
CONTINUOUS
 62
1
 10
133.052564
 20
149.000014
 40
1
 50
162.293681
 51
-162.293681
  0
CIRCLE
  8
0
  6
CONTINUOUS
 62
2
 10
112.000005
 20
163.000014
 40
1.65
  0
CIRCLE
  8
0
  6
CONTINUOUS
 62
1
 10
112.000005
 20
163.000014
 40
2
  0
CIRCLE
  8
0
  6
CONTINUOUS
 62
2
 10
142.000005
 20
163.000014
 40
1.65
  0
CIRCLE
  8
0
  6
CONTINUOUS
 62
1
 10
142.000005
 20
163.000014
 40
2
  0
CIRCLE
  8
0
  6
CONTINUOUS
 62
2
 10
112.000005
 20
135.000014
 40
1.65
  0
CIRCLE
  8
0
  6
CONTINUOUS
 62
1
 10
112.000005
 20
135.000014
 40
2
  0
CIRCLE
  8
0
  6
CONTINUOUS
 62
2
 10
142.000005
 20
135.000014
 40
1.65
  0
CIRCLE
  8
0
  6
CONTINUOUS
 62
1
 10
142.000005
 20
135.000014
 40
2
  0
LINE
  8
0
  6
CONTINUOUS
 62
1
 10
158.000005
 20
167.000014
 11
158.000005
 21
159.717812
  0
LINE
  8
0
  6
CONTINUOUS
 62
1
 10
160.000005
 20
157.717812
 11
206.000005
 21
157.717812
  0
LINE
  8
0
  6
CONTINUOUS
 62
1
 10
206.000005
 20
140.282216
 11
160.000005
 21
140.282216
  0
LINE
  8
0
  6
CONTINUOUS
 62
1
 10
158.000005
 20
138.282216
 11
158.000005
 21
131.000014
  0
ARC
  8
0
  6
CONTINUOUS
 62
1
 10
160.000005
 20
159.717812
 40
2
 50
180
 51
-90
  0
ARC
  8
0
  6
CONTINUOUS
 62
1
 10
160.000005
 20
138.282216
 40
2
 50
90
 51
180
  0
LINE
  8
0
  6
CONTINUOUS
 62
1
 10
206.000005
 20
167.000014
 11
206.000005
 21
131.000014
  0
LINE
  8
0
  6
CONTINUOUS
 62
1
 10
206.000005
 20
167.000014
 11
218.000005
 21
167.000014
  0
LINE
  8
0
  6
CONTINUOUS
 62
1
 10
220.000005
 20
165.000014
 11
220.000005
 21
149.000014
  0
LINE
  8
0
  6
CONTINUOUS
 62
1
 10
218.000005
 20
167.000014
 11
220.000005
 21
165.000014
  0
LINE
  8
0
  6
CONTINUOUS
 62
1
 10
206.000005
 20
131.000014
 11
218.000005
 21
131.000014
  0
LINE
  8
0
  6
CONTINUOUS
 62
1
 10
220.000005
 20
133.000014
 11
220.000005
 21
149.000014
  0
LINE
  8
0
  6
CONTINUOUS
 62
1
 10
218.000005
 20
131.000014
 11
220.000005
 21
133.000014
  0
CIRCLE
  8
0
  6
CONTINUOUS
 62
1
 10
255
 20
149.000014
 40
18
  0
CIRCLE
  8
0
  6
CONTINUOUS
 62
2
 10
255
 20
157.000014
 40
4.864
  0
CIRCLE
  8
0
  6
CONTINUOUS
 62
1
 10
255
 20
157.000014
 40
4.283
  0
CIRCLE
  8
0
  6
CONTINUOUS
 62
2
 10
255
 20
141.000014
 40
4.864
  0
CIRCLE
  8
0
  6
CONTINUOUS
 62
1
 10
255
 20
141.000014
 40
4.283
  0
CIRCLE
  8
0
  6
CONTINUOUS
 62
1
 10
255
 20
157.000014
 40
2
  0
LINE
  8
0
  6
CONTINUOUS
 62
1
 10
269
 20
160.313723
 11
269
 21
137.686306
  0
LINE
  8
0
  6
CONTINUOUS
 62
1
 10
241
 20
160.313723
 11
241
 21
137.686306
  0
LINE
  8
0
  6
CONTINUOUS
 62
1
 10
206.000005
 20
53.000012
 11
209.000005
 21
53.000012
  0
LINE
  8
0
  6
CONTINUOUS
 62
1
 10
209.000005
 20
53.000012
 11
209.000005
 21
55.000012
  0
LINE
  8
0
  6
CONTINUOUS
 62
1
 10
211.000005
 20
57.000012
 11
220.000005
 21
57.000012
  0
LINE
  8
0
  6
CONTINUOUS
 62
1
 10
220.000005
 20
57.000012
 11
220.000005
 21
85.000012
  0
LINE
  8
0
  6
CONTINUOUS
 62
1
 10
220.000005
 20
85.000012
 11
211.000005
 21
85.000012
  0
LINE
  8
0
  6
CONTINUOUS
 62
1
 10
209.000005
 20
87.000012
 11
209.000005
 21
89.000012
  0
LINE
  8
0
  6
CONTINUOUS
 62
1
 10
209.000005
 20
89.000012
 11
206.000005
 21
89.000012
  0
ARC
  8
0
  6
CONTINUOUS
 62
1
 10
211.000005
 20
55.000012
 40
2
 50
90
 51
180
  0
ARC
  8
0
  6
CONTINUOUS
 62
1
 10
211.000005
 20
87.000012
 40
2
 50
180
 51
-90
  0
LINE
  8
0
  6
CONTINUOUS
 62
1
 10
218.000005
 20
57.000012
 11
218.000005
 21
85.000012
  0
LINE
  8
0
  6
CONTINUOUS
 62
1
 10
220.000005
 20
160.313723
 11
209.000005
 21
160.313723
  0
LINE
  8
0
  6
CONTINUOUS
 62
1
 10
209.000005
 20
160.313723
 11
209.000005
 21
137.686306
  0
LINE
  8
0
  6
CONTINUOUS
 62
1
 10
209.000005
 20
137.686306
 11
220.000005
 21
137.686306
  0
LINE
  8
0
  6
CONTINUOUS
 62
1
 10
218.000005
 20
167.000014
 11
218.000005
 21
160.313723
  0
LINE
  8
0
  6
CONTINUOUS
 62
1
 10
218.000005
 20
137.686306
 11
218.000005
 21
131.000014
  0
LINE
  8
0
  6
CONTINUOUS
 62
1
 10
206.000005
 20
53.000012
 11
206.000005
 21
89.000012
  0
LINE
  8
0
  6
CONTINUOUS
 62
1
 10
206.000005
 20
89.000012
 11
88.517327
 21
89.000012
  0
LINE
  8
0
  6
CONTINUOUS
 62
1
 10
206.000005
 20
53.000012
 11
88.517327
 21
53.000012
  0
LINE
  8
0
  6
CONTINUOUS
 62
1
 10
205.000005
 20
89.000012
 11
205.000005
 21
79.71781
  0
LINE
  8
0
  6
CONTINUOUS
 62
1
 10
205.000005
 20
62.282215
 11
205.000005
 21
53.000012
  0
LINE
  8
0
  6
CENTER
 62
2
 10
33
 20
149.000014
 11
222
 21
149.000014
  0
LINE
  8
0
  6
CENTER
 62
2
 10
64.000005
 20
71.000012
 11
222
 21
71.000012
  0
TEXT
  8
0
 62
1
  6
BYLAYER
 62
1
 10
213.500005
 20
66.500012
 40
3
  1
ＯＵＴ
  7
Font_0
 50
90
  0
TEXT
  8
0
 62
3
  6
BYLAYER
 62
3
 10
225
 20
172
 40
3
  1
ＰＴ１／８”
  7
Font_0
  0
TEXT
  8
0
 62
3
  6
BYLAYER
 62
3
 10
252
 20
127
 40
3
  1
３６
  7
Font_0
  0
TEXT
  8
0
 62
3
  6
BYLAYER
 62
3
 10
120
 20
121
 40
3
  1
１６－Ｍ４　Ｐ＝０．７　深６
  7
Font_0
  0
TEXT
  8
0
 62
3
  6
BYLAYER
 62
3
 10
20
 20
65.000012
 40
3
  1
２３．１
  7
Font_0
 50
90
  0
TEXT
  8
0
 62
3
  6
BYLAYER
 62
3
 10
90.000005
 20
175
 40
3
  1
３８
  7
Font_0
  0
TEXT
  8
0
 62
3
  6
BYLAYER
 62
3
 10
124.000005
 20
175
 40
3
  1
３０
  7
Font_0
  0
TEXT
  8
0
 62
3
  6
BYLAYER
 62
3
 10
178.000005
 20
175
 40
3
  1
７８
  7
Font_0
  0
TEXT
  8
0
 62
3
  6
BYLAYER
 62
3
 10
26
 20
143.000014
 40
3
  1
１７．５
  7
Font_0
 50
90
  0
TEXT
  8
0
 62
3
  6
BYLAYER
 62
3
 10
51.000005
 20
127
 40
3
  1
４０
  7
Font_0
  0
TEXT
  8
0
 62
3
  6
BYLAYER
 62
3
 10
142.500005
 20
127
 40
3
  1
１４６
  7
Font_0
  0
TEXT
  8
0
 62
3
  6
BYLAYER
 62
3
 10
47.000005
 20
103
 40
3
  1
３２
  7
Font_0
  0
TEXT
  8
0
 62
3
  6
BYLAYER
 62
3
 10
131.500005
 20
103
 40
3
  1
１４０
  7
Font_0
  0
TEXT
  8
0
 62
3
  6
BYLAYER
 62
3
 10
210.000005
 20
103
 40
3
  1
１４
  7
Font_0
  0
TEXT
  8
0
 62
3
  6
BYLAYER
 62
3
 10
87.500005
 20
97
 40
3
  1
３３
  7
Font_0
  0
TEXT
  8
0
 62
3
  6
BYLAYER
 62
3
 10
119.000005
 20
97
 40
3
  1
３０
  7
Font_0
  0
TEXT
  8
0
 62
3
  6
BYLAYER
 62
3
 10
175.500005
 20
97
 40
3
  1
８３
  7
Font_0
  0
TEXT
  8
0
 62
3
  6
BYLAYER
 62
3
 10
26
 20
69.500012
 40
3
  1
９
  7
Font_0
 50
90
  0
TEXT
  8
0
 62
3
  6
BYLAYER
 62
3
 10
122.500005
 20
43
 40
3
  1
１８６
  7
Font_0
  0
TEXT
  8
0
 62
3
  6
BYLAYER
 62
3
 10
230
 20
68.000012
 40
3
  1
２８
  7
Font_0
 50
90
  0
TEXT
  8
0
 62
3
  6
BYLAYER
 62
3
 10
98
 20
68.000012
 40
3
  1
２８
  7
Font_0
 50
90
  0
TEXT
  8
0
 62
3
  6
BYLAYER
 62
3
 10
101
 20
146.000014
 40
3
  1
２８
  7
Font_0
 50
90
  0
TEXT
  8
0
 62
3
  6
BYLAYER
 62
3
 10
230
 20
146.000014
 40
3
  1
１６
  7
Font_0
 50
90
  0
TEXT
  8
0
 62
3
  6
BYLAYER
 62
3
 10
278
 20
146.000014
 40
3
  1
３６
  7
Font_0
 50
90
  0
ENDSEC
  0
EOF
