  0
SECTION
  2
HEADER
  9
$ACADVER
  1
AC1012
  9
$DWGCODEPAGE
  3
dos932
  9
$INSBASE
 10
0.0
 20
0.0
 30
0.0
  9
$EXTMIN
 10
0.4894416100455601
 20
0.4902653820932415
 30
-0.0000000349181948
  9
$EXTMAX
 10
144.0134587653603
 20
99.50454747945139
 30
0.0000000814935747
  9
$LIMMIN
 10
0.0
 20
0.0
  9
$LIMMAX
 10
297.0
 20
210.0
  9
$ORTHOMODE
 70
     0
  9
$REGENMODE
 70
     1
  9
$FILLMODE
 70
     1
  9
$QTEXTMODE
 70
     0
  9
$MIRRTEXT
 70
     1
  9
$DRAGMODE
 70
     2
  9
$LTSCALE
 40
15.0
  9
$OSMODE
 70
    37
  9
$ATTMODE
 70
     1
  9
$TEXTSIZE
 40
0.2
  9
$TRACEWID
 40
0.05
  9
$TEXTSTYLE
  7
GOTHIC
  9
$CLAYER
  8
CSLAYER1
  9
$CELTYPE
  6
BYLAYER
  9
$CECOLOR
 62
   256
  9
$CELTSCALE
 40
1.0
  9
$DELOBJ
 70
     1
  9
$DISPSILH
 70
     0
  9
$DIMSCALE
 40
1.0
  9
$DIMASZ
 40
0.18
  9
$DIMEXO
 40
0.0625
  9
$DIMDLI
 40
0.38
  9
$DIMRND
 40
0.0
  9
$DIMDLE
 40
0.0
  9
$DIMEXE
 40
0.18
  9
$DIMTP
 40
0.0
  9
$DIMTM
 40
0.0
  9
$DIMTXT
 40
0.18
  9
$DIMCEN
 40
0.09
  9
$DIMTSZ
 40
0.0
  9
$DIMTOL
 70
     0
  9
$DIMLIM
 70
     0
  9
$DIMTIH
 70
     1
  9
$DIMTOH
 70
     1
  9
$DIMSE1
 70
     0
  9
$DIMSE2
 70
     0
  9
$DIMTAD
 70
     0
  9
$DIMZIN
 70
     0
  9
$DIMBLK
  1

  9
$DIMASO
 70
     1
  9
$DIMSHO
 70
     1
  9
$DIMPOST
  1

  9
$DIMAPOST
  1

  9
$DIMALT
 70
     0
  9
$DIMALTD
 70
     2
  9
$DIMALTF
 40
25.4
  9
$DIMLFAC
 40
1.0
  9
$DIMTOFL
 70
     0
  9
$DIMTVP
 40
0.0
  9
$DIMTIX
 70
     0
  9
$DIMSOXD
 70
     0
  9
$DIMSAH
 70
     0
  9
$DIMBLK1
  1

  9
$DIMBLK2
  1

  9
$DIMSTYLE
  2
STANDARD
  9
$DIMCLRD
 70
     0
  9
$DIMCLRE
 70
     0
  9
$DIMCLRT
 70
     0
  9
$DIMTFAC
 40
1.0
  9
$DIMGAP
 40
0.09
  9
$DIMJUST
 70
     0
  9
$DIMSD1
 70
     0
  9
$DIMSD2
 70
     0
  9
$DIMTOLJ
 70
     1
  9
$DIMTZIN
 70
     0
  9
$DIMALTZ
 70
     0
  9
$DIMALTTZ
 70
     0
  9
$DIMFIT
 70
     3
  9
$DIMUPT
 70
     0
  9
$DIMUNIT
 70
     2
  9
$DIMDEC
 70
     4
  9
$DIMTDEC
 70
     4
  9
$DIMALTU
 70
     2
  9
$DIMALTTD
 70
     2
  9
$DIMTXSTY
  7
STANDARD
  9
$DIMAUNIT
 70
     0
  9
$LUNITS
 70
     2
  9
$LUPREC
 70
     4
  9
$SKETCHINC
 40
0.1
  9
$FILLETRAD
 40
0.0
  9
$AUNITS
 70
     0
  9
$AUPREC
 70
     0
  9
$MENU
  1
ACAD
  9
$ELEVATION
 40
0.0
  9
$PELEVATION
 40
0.0
  9
$THICKNESS
 40
0.0
  9
$LIMCHECK
 70
     0
  9
$BLIPMODE
 70
     1
  9
$CHAMFERA
 40
0.0
  9
$CHAMFERB
 40
0.0
  9
$CHAMFERC
 40
0.0
  9
$CHAMFERD
 40
0.0
  9
$SKPOLY
 70
     0
  9
$TDCREATE
 40
2453476.999999999
  9
$TDUPDATE
 40
2453575.472545115
  9
$TDINDWG
 40
0.0010313426
  9
$TDUSRTIMER
 40
0.0010311111
  9
$USRTIMER
 70
     1
  9
$ANGBASE
 50
0.0
  9
$ANGDIR
 70
     0
  9
$PDMODE
 70
     0
  9
$PDSIZE
 40
0.0
  9
$PLINEWID
 40
0.0
  9
$COORDS
 70
     0
  9
$SPLFRAME
 70
     0
  9
$SPLINETYPE
 70
     6
  9
$SPLINESEGS
 70
     8
  9
$ATTDIA
 70
     0
  9
$ATTREQ
 70
     1
  9
$HANDLING
 70
 22529
  9
$HANDSEED
  5
23C
  9
$SURFTAB1
 70
     6
  9
$SURFTAB2
 70
     6
  9
$SURFTYPE
 70
     6
  9
$SURFU
 70
     6
  9
$SURFV
 70
     6
  9
$UCSNAME
  2

  9
$UCSORG
 10
0.0
 20
0.0
 30
0.0
  9
$UCSXDIR
 10
1.0
 20
0.0
 30
0.0
  9
$UCSYDIR
 10
0.0
 20
1.0
 30
0.0
  9
$PUCSNAME
  2

  9
$PUCSORG
 10
0.0
 20
0.0
 30
0.0
  9
$PUCSXDIR
 10
1.0
 20
0.0
 30
0.0
  9
$PUCSYDIR
 10
0.0
 20
1.0
 30
0.0
  9
$USERI1
 70
     0
  9
$USERI2
 70
     0
  9
$USERI3
 70
     0
  9
$USERI4
 70
     0
  9
$USERI5
 70
     0
  9
$USERR1
 40
0.0
  9
$USERR2
 40
0.0
  9
$USERR3
 40
0.0
  9
$USERR4
 40
0.0
  9
$USERR5
 40
0.0
  9
$WORLDVIEW
 70
     1
  9
$SHADEDGE
 70
     3
  9
$SHADEDIF
 70
    70
  9
$TILEMODE
 70
     1
  9
$MAXACTVP
 70
    64
  9
$PINSBASE
 10
0.0
 20
0.0
 30
0.0
  9
$PLIMCHECK
 70
     0
  9
$PEXTMIN
 10
1.000000000000000E+20
 20
1.000000000000000E+20
 30
1.000000000000000E+20
  9
$PEXTMAX
 10
-1.000000000000000E+20
 20
-1.000000000000000E+20
 30
-1.000000000000000E+20
  9
$PLIMMIN
 10
0.0
 20
0.0
  9
$PLIMMAX
 10
12.0
 20
9.0
  9
$UNITMODE
 70
     0
  9
$VISRETAIN
 70
     1
  9
$PLINEGEN
 70
     0
  9
$PSLTSCALE
 70
     1
  9
$TREEDEPTH
 70
  3020
  9
$PICKSTYLE
 70
     3
  9
$CMLSTYLE
  2
STANDARD
  9
$CMLJUST
 70
     0
  9
$CMLSCALE
 40
1.0
  9
$SAVEIMAGES
 70
     1
  0
ENDSEC
  0
SECTION
  2
CLASSES
  0
CLASS
  1
ACDBDICTIONARYWDFLT
  2
AcDbDictionaryWithDefault
  3
AutoCAD 2000
 90
    32768
280
     0
281
     0
  0
CLASS
  1
ACDBPLACEHOLDER
  2
AcDbPlaceHolder
  3
AutoCAD 2000
 90
    32768
280
     0
281
     0
  0
CLASS
  1
LAYOUT
  2
AcDbLayout
  3
AutoCAD 2000
 90
    32768
280
     0
281
     0
  0
CLASS
  1
DICTIONARYVAR
  2
AcDbDictionaryVar
  3
AutoCAD 2000
 90
    32768
280
     0
281
     0
  0
CLASS
  1
LONG_TRANSACTION
  2
AcDbLongTransaction
  3
AutoCAD 2000
 90
    32768
280
     0
281
     0
  0
CLASS
  1
LWPOLYLINE
  2
AcDbPolyline
  3
AutoCAD 2000
 90
    32768
280
     0
281
     1
  0
CLASS
  1
HATCH
  2
AcDbHatch
  3
AutoCAD 2000
 90
    32768
280
     0
281
     1
  0
CLASS
  1
XRECORD
  2
AcDbXrecord
  3
AutoCAD 2000
 90
    32768
280
     0
281
     0
  0
CLASS
  1
LONG_TRANSACTION
  2
AcDbLongTransaction
  3
AutoCAD 2000
 90
    32768
280
     0
281
     0
  0
CLASS
  1
LWPOLYLINE
  2
AcDbPolyline
  3
AutoCAD 2000
 90
    32768
280
     0
281
     1
  0
CLASS
  1
HATCH
  2
AcDbHatch
  3
AutoCAD 2000
 90
    32768
280
     0
281
     1
  0
CLASS
  1
XRECORD
  2
AcDbXrecord
  3
AutoCAD 2000
 90
    32768
280
     0
281
     0
  0
CLASS
  1
LONG_TRANSACTION
  2
AcDbLongTransaction
  3
AutoCAD 2000
 90
    32768
280
     0
281
     0
  0
CLASS
  1
LWPOLYLINE
  2
AcDbPolyline
  3
AutoCAD 2000
 90
    32768
280
     0
281
     1
  0
CLASS
  1
HATCH
  2
AcDbHatch
  3
AutoCAD 2000
 90
    32768
280
     0
281
     1
  0
CLASS
  1
XRECORD
  2
AcDbXrecord
  3
AutoCAD 2000
 90
    32768
280
     0
281
     0
  0
ENDSEC
  0
SECTION
  2
TABLES
  0
TABLE
  2
VPORT
  5
8
330
0
100
AcDbSymbolTable
 70
     2
  0
VPORT
  5
239
330
8
100
AcDbSymbolTableRecord
100
AcDbViewportTableRecord
  2
*ACTIVE
 70
     0
 10
0.0
 20
0.0
 11
1.0
 21
1.0
 12
72.25145018770297
 22
49.99740643077231
 13
0.0
 23
0.0
 14
1.0
 24
1.0
 15
0.0
 25
0.0
 16
0.0
 26
0.0
 36
1.0
 17
0.0
 27
0.0
 37
0.0
 40
99.73264448258687
 41
1.458837772397094
 42
50.0
 43
0.0
 44
0.0
 50
0.0
 51
0.0
 71
     0
 72
   100
 73
     1
 74
     1
 75
     0
 76
     0
 77
     0
 78
     0
  0
ENDTAB
  0
TABLE
  2
LTYPE
  5
5
330
0
100
AcDbSymbolTable
 70
     4
  0
LTYPE
  5
13
330
5
100
AcDbSymbolTableRecord
100
AcDbLinetypeTableRecord
  2
BYBLOCK
 70
     0
  3

 72
    65
 73
     0
 40
0.0
  0
LTYPE
  5
14
330
5
100
AcDbSymbolTableRecord
100
AcDbLinetypeTableRecord
  2
BYLAYER
 70
     0
  3

 72
    65
 73
     0
 40
0.0
  0
LTYPE
  5
15
330
5
100
AcDbSymbolTableRecord
100
AcDbLinetypeTableRecord
  2
CONTINUOUS
 70
     0
  3
Solid line
 72
    65
 73
     0
 40
0.0
  0
LTYPE
  5
23
330
5
100
AcDbSymbolTableRecord
100
AcDbLinetypeTableRecord
  2
DASHED
 70
     0
  3
__ __ __ __ __ __ __ __ __ __ __ __ __ __ __
 72
    65
 73
     2
 40
0.75
 49
0.5
 74
     0
 49
-0.25
 74
     0
  0
LTYPE
  5
25
330
5
100
AcDbSymbolTableRecord
100
AcDbLinetypeTableRecord
  2
DOT
 70
     0
  3
...............................................
 72
    65
 73
     2
 40
0.25
 49
0.0
 74
     0
 49
-0.25
 74
     0
  0
LTYPE
  5
28
330
5
100
AcDbSymbolTableRecord
100
AcDbLinetypeTableRecord
  2
CENTER
 70
     0
  3
____ _ ____ _ ____ _ ____ _ ____ _ ____ _ ____ 
 72
    65
 73
     4
 40
2.0
 49
1.25
 74
     0
 49
-0.25
 74
     0
 49
0.25
 74
     0
 49
-0.25
 74
     0
  0
ENDTAB
  0
TABLE
  2
LAYER
  5
2
330
0
100
AcDbSymbolTable
 70
     3
  0
LAYER
  5
10
330
2
100
AcDbSymbolTableRecord
100
AcDbLayerTableRecord
  2
0
 70
     0
 62
     7
  6
CONTINUOUS
  0
LAYER
  5
22
330
2
100
AcDbSymbolTableRecord
100
AcDbLayerTableRecord
  2
CSLAYER1
 70
     0
 62
     7
  6
CONTINUOUS
  0
LAYER
  5
191
330
2
100
AcDbSymbolTableRecord
100
AcDbLayerTableRecord
  2
DEFPOINTS
 70
     0
 62
     7
  6
CONTINUOUS
  0
ENDTAB
  0
TABLE
  2
STYLE
  5
3
330
0
100
AcDbSymbolTable
 70
     3
  0
STYLE
  5
11
330
3
100
AcDbSymbolTableRecord
100
AcDbTextStyleTableRecord
  2
STANDARD
 70
     0
 40
0.0
 41
1.0
 50
0.0
 71
     0
 42
0.2
  3
txt
  4
extfont.shx
  0
STYLE
  5
3A
330
3
100
AcDbSymbolTableRecord
100
AcDbTextStyleTableRecord
  2
FX_FONT
 70
     0
 40
1.0
 41
1.0
 50
0.0
 71
     0
 42
1.0
  3
monotxt
  4
bigfont
  0
STYLE
  5
189
330
3
100
AcDbSymbolTableRecord
100
AcDbTextStyleTableRecord
  2
GOTHIC
 70
     0
 40
0.0
 41
1.0
 50
0.0
 71
     0
 42
0.2
  3
txt.shx
  4
extfont.shx
  0
ENDTAB
  0
TABLE
  2
VIEW
  5
6
330
0
100
AcDbSymbolTable
 70
     0
  0
ENDTAB
  0
TABLE
  2
UCS
  5
7
330
0
100
AcDbSymbolTable
 70
     0
  0
ENDTAB
  0
TABLE
  2
APPID
  5
9
330
0
100
AcDbSymbolTable
 70
     1
  0
APPID
  5
12
330
9
100
AcDbSymbolTableRecord
100
AcDbRegAppTableRecord
  2
ACAD
 70
     0
  0
ENDTAB
  0
TABLE
  2
DIMSTYLE
  5
A
330
0
100
AcDbSymbolTable
 70
     1
  0
DIMSTYLE
105
186
330
A
100
AcDbSymbolTableRecord
100
AcDbDimStyleTableRecord
  2
STANDARD
 70
     0
  3

  4

  5

  6

  7

 40
1.0
 41
0.18
 42
0.0625
 43
0.38
 44
0.18
 45
0.0
 46
0.0
 47
0.0
 48
0.0
140
0.18
141
0.09
142
0.0
143
25.4
144
1.0
145
0.0
146
1.0
147
0.09
 71
     0
 72
     0
 73
     1
 74
     1
 75
     0
 76
     0
 77
     0
 78
     0
170
     0
171
     2
172
     0
173
     0
174
     0
175
     0
176
     0
177
     0
178
     0
270
     2
271
     4
272
     4
273
     2
274
     2
340
11
275
     0
280
     0
281
     0
282
     0
283
     1
284
     0
285
     0
286
     0
287
     3
288
     0
  0
ENDTAB
  0
TABLE
  2
BLOCK_RECORD
  5
1
330
0
100
AcDbSymbolTable
 70
    21
  0
BLOCK_RECORD
  5
1E
102
{ACAD_XDICTIONARY
360
18F
102
}
330
1
100
AcDbSymbolTableRecord
100
AcDbBlockTableRecord
  2
*MODEL_SPACE
  0
BLOCK_RECORD
  5
1A
102
{ACAD_XDICTIONARY
360
18D
102
}
330
1
100
AcDbSymbolTableRecord
100
AcDbBlockTableRecord
  2
*PAPER_SPACE
  0
BLOCK_RECORD
  5
3F
330
1
100
AcDbSymbolTableRecord
100
AcDbBlockTableRecord
  2
FXDIM0000
  0
BLOCK_RECORD
  5
47
330
1
100
AcDbSymbolTableRecord
100
AcDbBlockTableRecord
  2
FXDIM0001
  0
BLOCK_RECORD
  5
51
330
1
100
AcDbSymbolTableRecord
100
AcDbBlockTableRecord
  2
FXDIM0002
  0
BLOCK_RECORD
  5
5B
330
1
100
AcDbSymbolTableRecord
100
AcDbBlockTableRecord
  2
*D3
  0
BLOCK_RECORD
  5
66
330
1
100
AcDbSymbolTableRecord
100
AcDbBlockTableRecord
  2
*D4
  0
BLOCK_RECORD
  5
73
330
1
100
AcDbSymbolTableRecord
100
AcDbBlockTableRecord
  2
*D5
  0
BLOCK_RECORD
  5
7C
330
1
100
AcDbSymbolTableRecord
100
AcDbBlockTableRecord
  2
*D6
  0
BLOCK_RECORD
  5
87
330
1
100
AcDbSymbolTableRecord
100
AcDbBlockTableRecord
  2
*D7
  0
BLOCK_RECORD
  5
92
330
1
100
AcDbSymbolTableRecord
100
AcDbBlockTableRecord
  2
*D8
  0
BLOCK_RECORD
  5
9D
330
1
100
AcDbSymbolTableRecord
100
AcDbBlockTableRecord
  2
*D9
  0
BLOCK_RECORD
  5
AA
330
1
100
AcDbSymbolTableRecord
100
AcDbBlockTableRecord
  2
*D10
  0
BLOCK_RECORD
  5
B1
330
1
100
AcDbSymbolTableRecord
100
AcDbBlockTableRecord
  2
*D11
  0
BLOCK_RECORD
  5
BE
330
1
100
AcDbSymbolTableRecord
100
AcDbBlockTableRecord
  2
*D12
  0
BLOCK_RECORD
  5
C8
330
1
100
AcDbSymbolTableRecord
100
AcDbBlockTableRecord
  2
*D13
  0
BLOCK_RECORD
  5
CF
330
1
100
AcDbSymbolTableRecord
100
AcDbBlockTableRecord
  2
*D14
  0
BLOCK_RECORD
  5
DA
330
1
100
AcDbSymbolTableRecord
100
AcDbBlockTableRecord
  2
*D15
  0
BLOCK_RECORD
  5
E4
330
1
100
AcDbSymbolTableRecord
100
AcDbBlockTableRecord
  2
*D16
  0
BLOCK_RECORD
  5
192
330
1
100
AcDbSymbolTableRecord
100
AcDbBlockTableRecord
  2
*D17
  0
BLOCK_RECORD
  5
19F
330
1
100
AcDbSymbolTableRecord
100
AcDbBlockTableRecord
  2
*D18
  0
BLOCK_RECORD
  5
1AD
330
1
100
AcDbSymbolTableRecord
100
AcDbBlockTableRecord
  2
*D19
  0
BLOCK_RECORD
  5
1BC
330
1
100
AcDbSymbolTableRecord
100
AcDbBlockTableRecord
  2
*D20
  0
ENDTAB
  0
ENDSEC
  0
SECTION
  2
BLOCKS
  0
BLOCK
  5
1F
330
1E
100
AcDbEntity
  8
0
100
AcDbBlockBegin
  2
*MODEL_SPACE
 70
     0
 10
0.0
 20
0.0
 30
0.0
  3
*MODEL_SPACE
  1

  0
ENDBLK
  5
20
330
1E
100
AcDbEntity
  8
0
100
AcDbBlockEnd
  0
BLOCK
  5
1B
330
1A
100
AcDbEntity
 67
     1
  8
0
100
AcDbBlockBegin
  2
*PAPER_SPACE
 70
     0
 10
0.0
 20
0.0
 30
0.0
  3
*PAPER_SPACE
  1

  0
ENDBLK
  5
1C
330
1A
100
AcDbEntity
 67
     1
  8
0
100
AcDbBlockEnd
  0
BLOCK
  5
40
330
3F
100
AcDbEntity
  8
0
100
AcDbBlockBegin
  2
FXDIM0000
 70
     0
 10
0.0
 20
0.0
 30
0.0
  3
FXDIM0000
  1

  0
LINE
  5
41
330
3F
100
AcDbEntity
  8
CSLAYER1
  6
CONTINUOUS
 62
     4
100
AcDbLine
 10
144.853908
 20
134.823229
 30
0.0
 11
137.062173
 21
105.744079
 31
0.0
  0
LINE
  5
42
330
3F
100
AcDbEntity
  8
CSLAYER1
  6
CONTINUOUS
 62
     4
100
AcDbLine
 10
144.853908
 20
134.823229
 30
0.0
 11
144.853908
 21
131.823229
 31
0.0
  0
LINE
  5
43
330
3F
100
AcDbEntity
  8
CSLAYER1
  6
CONTINUOUS
 62
     4
100
AcDbLine
 10
144.853908
 20
134.823229
 30
0.0
 11
143.353908
 21
132.225153
 31
0.0
  0
LINE
  5
44
330
3F
100
AcDbEntity
  8
CSLAYER1
  6
CONTINUOUS
 62
     4
100
AcDbLine
 10
137.062173
 20
105.744079
 30
0.0
 11
123.0621729999999
 21
105.744079
 31
0.0
  0
TEXT
  5
45
330
3F
100
AcDbEntity
  8
CSLAYER1
 62
     4
100
AcDbText
 10
124.0621799999999
 20
106.74408
 30
0.0
 40
3.0
  1
%%c4.1
 41
1.142857142857153
 51
15.0
  7
FX_FONT
 72
     5
 11
136.06218
 21
106.74408
 31
0.0
100
AcDbText
  0
ENDBLK
  5
46
330
3F
100
AcDbEntity
  8
0
100
AcDbBlockEnd
  0
BLOCK
  5
48
330
47
100
AcDbEntity
  8
0
100
AcDbBlockBegin
  2
FXDIM0001
 70
     0
 10
0.0
 20
0.0
 30
0.0
  3
FXDIM0001
  1

  0
LINE
  5
49
330
47
100
AcDbEntity
  8
CSLAYER1
  6
CONTINUOUS
 62
     4
100
AcDbLine
 10
151.4526319999999
 20
97.37763800000001
 30
0.0
 11
153.4526319999999
 21
100.84174
 31
0.0
  0
LINE
  5
4A
330
47
100
AcDbEntity
  8
CSLAYER1
  6
CONTINUOUS
 62
     4
100
AcDbLine
 10
149.452632
 20
100.84174
 30
0.0
 11
161.4526319999999
 21
100.84174
 31
0.0
  0
LINE
  5
4B
330
47
100
AcDbEntity
  8
CSLAYER1
  6
CONTINUOUS
 62
     4
100
AcDbLine
 10
149.452632
 20
100.84174
 30
0.0
 11
151.4526319999999
 21
97.37763800000001
 31
0.0
  0
LINE
  5
4C
330
47
100
AcDbEntity
  8
CSLAYER1
  6
CONTINUOUS
 62
     4
100
AcDbLine
 10
155.4526319999999
 20
97.37763800000001
 30
0.0
 11
157.4526319999999
 21
100.84174
 31
0.0
  0
LINE
  5
4D
330
47
100
AcDbEntity
  8
CSLAYER1
  6
CONTINUOUS
 62
     4
100
AcDbLine
 10
153.4526319999999
 20
100.84174
 30
0.0
 11
155.4526319999999
 21
97.37763800000001
 31
0.0
  0
LINE
  5
4E
330
47
100
AcDbEntity
  8
CSLAYER1
  6
CONTINUOUS
 62
     4
100
AcDbLine
 10
159.4526319999999
 20
97.37763800000001
 30
0.0
 11
161.4526319999999
 21
100.84174
 31
0.0
  0
LINE
  5
4F
330
47
100
AcDbEntity
  8
CSLAYER1
  6
CONTINUOUS
 62
     4
100
AcDbLine
 10
157.4526319999999
 20
100.84174
 30
0.0
 11
159.4526319999999
 21
97.37763800000001
 31
0.0
  0
ENDBLK
  5
50
330
47
100
AcDbEntity
  8
0
100
AcDbBlockEnd
  0
BLOCK
  5
52
330
51
100
AcDbEntity
  8
0
100
AcDbBlockBegin
  2
FXDIM0002
 70
     0
 10
0.0
 20
0.0
 30
0.0
  3
FXDIM0002
  1

  0
LINE
  5
53
330
51
100
AcDbEntity
  8
CSLAYER1
  6
CONTINUOUS
 62
     4
100
AcDbLine
 10
153.852632
 20
79.377638
 30
0.0
 11
151.852632
 21
75.91353599999997
 31
0.0
  0
LINE
  5
54
330
51
100
AcDbEntity
  8
CSLAYER1
  6
CONTINUOUS
 62
     4
100
AcDbLine
 10
151.852632
 20
75.91353599999997
 30
0.0
 11
163.8526319999999
 21
75.91353599999997
 31
0.0
  0
LINE
  5
55
330
51
100
AcDbEntity
  8
CSLAYER1
  6
CONTINUOUS
 62
     4
100
AcDbLine
 10
155.852632
 20
75.91353599999997
 30
0.0
 11
153.852632
 21
79.377638
 31
0.0
  0
LINE
  5
56
330
51
100
AcDbEntity
  8
CSLAYER1
  6
CONTINUOUS
 62
     4
100
AcDbLine
 10
157.8526319999999
 20
79.377638
 30
0.0
 11
155.852632
 21
75.91353599999997
 31
0.0
  0
LINE
  5
57
330
51
100
AcDbEntity
  8
CSLAYER1
  6
CONTINUOUS
 62
     4
100
AcDbLine
 10
159.8526319999999
 20
75.91353599999997
 30
0.0
 11
157.8526319999999
 21
79.377638
 31
0.0
  0
LINE
  5
58
330
51
100
AcDbEntity
  8
CSLAYER1
  6
CONTINUOUS
 62
     4
100
AcDbLine
 10
161.8526319999999
 20
79.377638
 30
0.0
 11
159.8526319999999
 21
75.91353599999997
 31
0.0
  0
LINE
  5
59
330
51
100
AcDbEntity
  8
CSLAYER1
  6
CONTINUOUS
 62
     4
100
AcDbLine
 10
163.8526319999999
 20
75.91353599999997
 30
0.0
 11
161.8526319999999
 21
79.377638
 31
0.0
  0
ENDBLK
  5
5A
330
51
100
AcDbEntity
  8
0
100
AcDbBlockEnd
  0
BLOCK
  5
5C
330
5B
100
AcDbEntity
  8
0
100
AcDbBlockBegin
  2
*D3
 70
     1
 10
0.0
 20
0.0
 30
0.0
  3
*D3
  1

  0
TEXT
  5
5D
330
5B
100
AcDbEntity
  8
CSLAYER1
 62
     4
100
AcDbText
 10
127.552628
 20
64.23891400000001
 30
0.0
 40
3.0
  1
12.5
 41
1.09090909090909
 51
15.0
  7
FX_FONT
 72
     5
 11
139.552628
 21
64.23891400000001
 31
0.0
100
AcDbText
  0
LINE
  5
5E
330
5B
100
AcDbEntity
  8
CSLAYER1
  6
CONTINUOUS
 62
     4
100
AcDbLine
 10
121.052632
 20
63.238911
 30
0.0
 11
146.052632
 21
63.238911
 31
0.0
  0
LINE
  5
5F
330
5B
100
AcDbEntity
  8
CSLAYER1
  6
CONTINUOUS
 62
     4
100
AcDbLine
 10
121.052632
 20
63.238911
 30
0.0
 11
123.950409
 21
64.01536899999999
 31
0.0
  0
LINE
  5
60
330
5B
100
AcDbEntity
  8
CSLAYER1
  6
CONTINUOUS
 62
     4
100
AcDbLine
 10
121.052632
 20
63.238911
 30
0.0
 11
123.950409
 21
62.462454
 31
0.0
  0
LINE
  5
61
330
5B
100
AcDbEntity
  8
CSLAYER1
  6
CONTINUOUS
 62
     4
100
AcDbLine
 10
146.052632
 20
63.238911
 30
0.0
 11
143.154854
 21
64.01536899999999
 31
0.0
  0
LINE
  5
62
330
5B
100
AcDbEntity
  8
CSLAYER1
  6
CONTINUOUS
 62
     4
100
AcDbLine
 10
146.052632
 20
63.238911
 30
0.0
 11
143.154854
 21
62.462454
 31
0.0
  0
LINE
  5
63
330
5B
100
AcDbEntity
  8
CSLAYER1
  6
CONTINUOUS
 62
     4
100
AcDbLine
 10
121.052632
 20
78.37763800000002
 30
0.0
 11
121.052632
 21
62.238911
 31
0.0
  0
LINE
  5
64
330
5B
100
AcDbEntity
  8
CSLAYER1
  6
CONTINUOUS
 62
     4
100
AcDbLine
 10
146.052632
 20
71.928495
 30
0.0
 11
146.052632
 21
62.238911
 31
0.0
  0
ENDBLK
  5
65
330
5B
100
AcDbEntity
  8
0
100
AcDbBlockEnd
  0
BLOCK
  5
67
330
66
100
AcDbEntity
  8
0
100
AcDbBlockBegin
  2
*D4
 70
     1
 10
0.0
 20
0.0
 30
0.0
  3
*D4
  1

  0
TEXT
  5
68
330
66
100
AcDbEntity
  8
CSLAYER1
 62
     4
100
AcDbText
 10
77.02134699999998
 20
87.956917
 30
0.0
 40
3.0
  1
9   
 50
90.0
 41
1.428571428571428
 51
15.0
  7
FX_FONT
 72
     5
 11
77.02134699999998
 21
99.95691700000001
 31
0.0
100
AcDbText
  0
TEXT
  5
69
330
66
100
AcDbEntity
  8
CSLAYER1
 62
     4
100
AcDbText
 10
75.52134699999998
 20
99.95691700000001
 30
0.0
 40
1.5
  1
   0
 50
90.0
 41
1.621621621621595
 51
15.0
  7
FX_FONT
 72
     5
 11
75.52134699999998
 21
105.9569169999999
 31
0.0
100
AcDbText
  0
TEXT
  5
6A
330
66
100
AcDbEntity
  8
CSLAYER1
 62
     4
100
AcDbText
 10
77.02134699999998
 20
99.95691700000001
 30
0.0
 40
1.5
  1
-0.15
 50
90.0
 41
1.071428571428557
 51
15.0
  7
FX_FONT
 72
     5
 11
77.02134699999998
 21
107.4569169999999
 31
0.0
100
AcDbText
  0
LINE
  5
6B
330
66
100
AcDbEntity
  8
CSLAYER1
  6
CONTINUOUS
 62
     4
100
AcDbLine
 10
78.021345
 20
79.377638
 30
0.0
 11
78.021345
 21
97.37763800000001
 31
0.0
  0
LINE
  5
6C
330
66
100
AcDbEntity
  8
CSLAYER1
  6
CONTINUOUS
 62
     4
100
AcDbLine
 10
78.021345
 20
79.377638
 30
0.0
 11
77.244888
 21
82.275416
 31
0.0
  0
LINE
  5
6D
330
66
100
AcDbEntity
  8
CSLAYER1
  6
CONTINUOUS
 62
     4
100
AcDbLine
 10
78.021345
 20
79.377638
 30
0.0
 11
78.797802
 21
82.275416
 31
0.0
  0
LINE
  5
6E
330
66
100
AcDbEntity
  8
CSLAYER1
  6
CONTINUOUS
 62
     4
100
AcDbLine
 10
78.021345
 20
97.37763800000001
 30
0.0
 11
77.244888
 21
94.47986099999999
 31
0.0
  0
LINE
  5
6F
330
66
100
AcDbEntity
  8
CSLAYER1
  6
CONTINUOUS
 62
     4
100
AcDbLine
 10
78.021345
 20
97.37763800000001
 30
0.0
 11
78.797802
 21
94.47986099999999
 31
0.0
  0
LINE
  5
70
330
66
100
AcDbEntity
  8
CSLAYER1
  6
CONTINUOUS
 62
     4
100
AcDbLine
 10
120.052632
 20
79.377638
 30
0.0
 11
77.02134499999998
 21
79.377638
 31
0.0
  0
LINE
  5
71
330
66
100
AcDbEntity
  8
CSLAYER1
  6
CONTINUOUS
 62
     4
100
AcDbLine
 10
91.05263200000001
 20
97.37763800000001
 30
0.0
 11
77.02134499999998
 21
97.37763800000001
 31
0.0
  0
ENDBLK
  5
72
330
66
100
AcDbEntity
  8
0
100
AcDbBlockEnd
  0
BLOCK
  5
74
330
73
100
AcDbEntity
  8
0
100
AcDbBlockBegin
  2
*D5
 70
     1
 10
0.0
 20
0.0
 30
0.0
  3
*D5
  1

  0
TEXT
  5
75
330
73
100
AcDbEntity
  8
CSLAYER1
 62
     4
100
AcDbText
 10
93.867793
 20
82.00305
 30
0.0
 40
3.0
  1
30%%d
 50
75.00000177674476
 41
1.285714210459243
 51
15.0
  7
FX_FONT
 72
     5
 11
96.19716400000001
 21
90.69638199999999
 31
0.0
100
AcDbText
  0
ARC
  5
76
330
73
100
AcDbEntity
  8
CSLAYER1
  6
CONTINUOUS
 62
     4
100
AcDbCircle
 10
121.052632
 20
79.377638
 30
0.0
 40
25.938049
100
AcDbArc
 50
150.0
 51
180.0
  0
LINE
  5
77
330
73
100
AcDbEntity
  8
CSLAYER1
  6
CONTINUOUS
 62
     4
100
AcDbLine
 10
98.58962300000001
 20
92.34666199999999
 30
0.0
 11
97.813165
 21
89.44888500000002
 31
0.0
  0
LINE
  5
78
330
73
100
AcDbEntity
  8
CSLAYER1
  6
CONTINUOUS
 62
     4
100
AcDbLine
 10
98.58962300000001
 20
92.34666199999999
 30
0.0
 11
96.46830200000001
 21
90.225342
 31
0.0
  0
LINE
  5
79
330
73
100
AcDbEntity
  8
CSLAYER1
  6
CONTINUOUS
 62
     4
100
AcDbLine
 10
95.11458299999999
 20
79.377638
 30
0.0
 11
94.33812600000001
 21
82.275416
 31
0.0
  0
LINE
  5
7A
330
73
100
AcDbEntity
  8
CSLAYER1
  6
CONTINUOUS
 62
     4
100
AcDbLine
 10
95.11458299999999
 20
79.377638
 30
0.0
 11
95.89104
 21
82.275416
 31
0.0
  0
ENDBLK
  5
7B
330
73
100
AcDbEntity
  8
0
100
AcDbBlockEnd
  0
BLOCK
  5
7D
330
7C
100
AcDbEntity
  8
0
100
AcDbBlockBegin
  2
*D6
 70
     1
 10
0.0
 20
0.0
 30
0.0
  3
*D6
  1

  0
TEXT
  5
7E
330
7C
100
AcDbEntity
  8
CSLAYER1
 62
     4
100
AcDbText
 10
83.55746100000002
 20
74.404012
 30
0.0
 40
3.352796
  1
切刃部有効13.5
 50
330.000000419929
 41
0.6292969723215096
 51
15.0
  7
FX_FONT
 72
     5
 11
101.220692
 21
64.206141
 31
0.0
100
AcDbText
  0
LINE
  5
7F
330
7C
100
AcDbEntity
  8
CSLAYER1
  6
CONTINUOUS
 62
     4
100
AcDbLine
 10
80.025194
 20
75.288663
 30
0.0
 11
103.40788
 21
61.788663
 31
0.0
  0
LINE
  5
80
330
7C
100
AcDbEntity
  8
CSLAYER1
  6
CONTINUOUS
 62
     4
100
AcDbLine
 10
80.025194
 20
75.288663
 30
0.0
 11
82.92297099999997
 21
74.512206
 31
0.0
  0
LINE
  5
81
330
7C
100
AcDbEntity
  8
CSLAYER1
  6
CONTINUOUS
 62
     4
100
AcDbLine
 10
80.025194
 20
75.288663
 30
0.0
 11
82.14651399999999
 21
73.167342
 31
0.0
  0
LINE
  5
82
330
7C
100
AcDbEntity
  8
CSLAYER1
  6
CONTINUOUS
 62
     4
100
AcDbLine
 10
103.40788
 20
61.788663
 30
0.0
 11
100.510102
 21
62.56511999999999
 31
0.0
  0
LINE
  5
83
330
7C
100
AcDbEntity
  8
CSLAYER1
  6
CONTINUOUS
 62
     4
100
AcDbLine
 10
103.40788
 20
61.788663
 30
0.0
 11
101.286559
 21
63.90998299999999
 31
0.0
  0
LINE
  5
84
330
7C
100
AcDbEntity
  8
CSLAYER1
  6
CONTINUOUS
 62
     4
100
AcDbLine
 10
91.55263199999998
 20
95.25477
 30
0.0
 11
79.52519399999999
 21
74.42263699999998
 31
0.0
  0
LINE
  5
85
330
7C
100
AcDbEntity
  8
CSLAYER1
  6
CONTINUOUS
 62
     4
100
AcDbLine
 10
114.9353169999999
 20
81.75476999999998
 30
0.0
 11
102.90788
 21
60.922637
 31
0.0
  0
ENDBLK
  5
86
330
7C
100
AcDbEntity
  8
0
100
AcDbBlockEnd
  0
BLOCK
  5
88
330
87
100
AcDbEntity
  8
0
100
AcDbBlockBegin
  2
*D7
 70
     1
 10
0.0
 20
0.0
 30
0.0
  3
*D7
  1

  0
TEXT
  5
89
330
87
100
AcDbEntity
  8
CSLAYER1
 62
     4
100
AcDbText
 10
116.052635
 20
179.914474
 30
0.0
 40
3.0
  1
27
 41
1.2
 51
15.0
  7
FX_FONT
 72
     5
 11
122.052635
 21
179.914474
 31
0.0
100
AcDbText
  0
LINE
  5
8A
330
87
100
AcDbEntity
  8
CSLAYER1
  6
CONTINUOUS
 62
     4
100
AcDbLine
 10
92.05263199999999
 20
178.914474
 30
0.0
 11
146.052632
 21
178.914474
 31
0.0
  0
LINE
  5
8B
330
87
100
AcDbEntity
  8
CSLAYER1
  6
CONTINUOUS
 62
     4
100
AcDbLine
 10
92.05263199999999
 20
178.914474
 30
0.0
 11
94.95040899999999
 21
179.690931
 31
0.0
  0
LINE
  5
8C
330
87
100
AcDbEntity
  8
CSLAYER1
  6
CONTINUOUS
 62
     4
100
AcDbLine
 10
92.05263199999999
 20
178.914474
 30
0.0
 11
94.95040899999999
 21
178.138017
 31
0.0
  0
LINE
  5
8D
330
87
100
AcDbEntity
  8
CSLAYER1
  6
CONTINUOUS
 62
     4
100
AcDbLine
 10
146.052632
 20
178.914474
 30
0.0
 11
143.154854
 21
179.690931
 31
0.0
  0
LINE
  5
8E
330
87
100
AcDbEntity
  8
CSLAYER1
  6
CONTINUOUS
 62
     4
100
AcDbLine
 10
146.052632
 20
178.914474
 30
0.0
 11
143.154854
 21
178.138017
 31
0.0
  0
LINE
  5
8F
330
87
100
AcDbEntity
  8
CSLAYER1
  6
CONTINUOUS
 62
     4
100
AcDbLine
 10
92.05263199999999
 20
142.240233
 30
0.0
 11
92.05263199999999
 21
179.914474
 31
0.0
  0
LINE
  5
90
330
87
100
AcDbEntity
  8
CSLAYER1
  6
CONTINUOUS
 62
     4
100
AcDbLine
 10
146.052632
 20
167.3440789999999
 30
0.0
 11
146.052632
 21
179.914474
 31
0.0
  0
ENDBLK
  5
91
330
87
100
AcDbEntity
  8
0
100
AcDbBlockEnd
  0
BLOCK
  5
93
330
92
100
AcDbEntity
  8
0
100
AcDbBlockBegin
  2
*D8
 70
     1
 10
0.0
 20
0.0
 30
0.0
  3
*D8
  1

  0
TEXT
  5
94
330
92
100
AcDbEntity
  8
CSLAYER1
 62
     4
100
AcDbText
 10
75.54026800000002
 20
131.24408
 30
0.0
 40
3.0
  1
20~21
 50
90.0
 41
1.111111111111104
 51
15.0
  7
FX_FONT
 72
     5
 11
75.54026800000002
 21
146.2440799999999
 31
0.0
100
AcDbText
  0
LINE
  5
95
330
92
100
AcDbEntity
  8
CSLAYER1
  6
CONTINUOUS
 62
     4
100
AcDbLine
 10
76.540261
 20
118.7440789999999
 30
0.0
 11
76.540261
 21
158.744079
 31
0.0
  0
LINE
  5
96
330
92
100
AcDbEntity
  8
CSLAYER1
  6
CONTINUOUS
 62
     4
100
AcDbLine
 10
76.540261
 20
118.7440789999999
 30
0.0
 11
75.763803
 21
121.641856
 31
0.0
  0
LINE
  5
97
330
92
100
AcDbEntity
  8
CSLAYER1
  6
CONTINUOUS
 62
     4
100
AcDbLine
 10
76.540261
 20
118.7440789999999
 30
0.0
 11
77.316718
 21
121.641856
 31
0.0
  0
LINE
  5
98
330
92
100
AcDbEntity
  8
CSLAYER1
  6
CONTINUOUS
 62
     4
100
AcDbLine
 10
76.540261
 20
158.744079
 30
0.0
 11
75.763803
 21
155.846301
 31
0.0
  0
LINE
  5
99
330
92
100
AcDbEntity
  8
CSLAYER1
  6
CONTINUOUS
 62
     4
100
AcDbLine
 10
76.540261
 20
158.744079
 30
0.0
 11
77.316718
 21
155.846301
 31
0.0
  0
LINE
  5
9A
330
92
100
AcDbEntity
  8
CSLAYER1
  6
CONTINUOUS
 62
     4
100
AcDbLine
 10
129.052632
 20
118.7440789999999
 30
0.0
 11
75.540261
 21
118.7440789999999
 31
0.0
  0
LINE
  5
9B
330
92
100
AcDbEntity
  8
CSLAYER1
  6
CONTINUOUS
 62
     4
100
AcDbLine
 10
129.052632
 20
158.744079
 30
0.0
 11
75.540261
 21
158.744079
 31
0.0
  0
ENDBLK
  5
9C
330
92
100
AcDbEntity
  8
0
100
AcDbBlockEnd
  0
BLOCK
  5
9E
330
9D
100
AcDbEntity
  8
0
100
AcDbBlockBegin
  2
*D9
 70
     1
 10
0.0
 20
0.0
 30
0.0
  3
*D9
  1

  0
TEXT
  5
9F
330
9D
100
AcDbEntity
  8
CSLAYER1
 62
     4
100
AcDbText
 10
81.149445
 20
134.345612
 30
0.0
 40
3.0
  1
2.5
 50
90.0
 41
1.125
 51
15.0
  7
FX_FONT
 72
     5
 11
81.149445
 21
143.345612
 31
0.0
100
AcDbText
  0
LINE
  5
A0
330
9D
100
AcDbEntity
  8
CSLAYER1
  6
CONTINUOUS
 62
     4
100
AcDbLine
 10
82.540261
 20
136.247925
 30
0.0
 11
82.540261
 21
141.240233
 31
0.0
  0
LINE
  5
A1
330
9D
100
AcDbEntity
  8
CSLAYER1
  6
CONTINUOUS
 62
     4
100
AcDbLine
 10
91.05263200000001
 20
136.247925
 30
0.0
 11
81.54026100000001
 21
136.247925
 31
0.0
  0
LINE
  5
A2
330
9D
100
AcDbEntity
  8
CSLAYER1
  6
CONTINUOUS
 62
     4
100
AcDbLine
 10
91.05263200000001
 20
141.240233
 30
0.0
 11
81.54026100000001
 21
141.240233
 31
0.0
  0
LINE
  5
A3
330
9D
100
AcDbEntity
  8
CSLAYER1
  6
CONTINUOUS
 62
     4
100
AcDbLine
 10
82.540261
 20
130.247925
 30
0.0
 11
82.540261
 21
136.247925
 31
0.0
  0
LINE
  5
A4
330
9D
100
AcDbEntity
  8
CSLAYER1
  6
CONTINUOUS
 62
     4
100
AcDbLine
 10
82.540261
 20
136.247925
 30
0.0
 11
81.76380299999998
 21
133.350148
 31
0.0
  0
LINE
  5
A5
330
9D
100
AcDbEntity
  8
CSLAYER1
  6
CONTINUOUS
 62
     4
100
AcDbLine
 10
82.540261
 20
136.247925
 30
0.0
 11
83.316718
 21
133.350148
 31
0.0
  0
LINE
  5
A6
330
9D
100
AcDbEntity
  8
CSLAYER1
  6
CONTINUOUS
 62
     4
100
AcDbLine
 10
82.540261
 20
141.240233
 30
0.0
 11
82.540261
 21
147.240233
 31
0.0
  0
LINE
  5
A7
330
9D
100
AcDbEntity
  8
CSLAYER1
  6
CONTINUOUS
 62
     4
100
AcDbLine
 10
82.540261
 20
141.240233
 30
0.0
 11
81.76380299999998
 21
144.13801
 31
0.0
  0
LINE
  5
A8
330
9D
100
AcDbEntity
  8
CSLAYER1
  6
CONTINUOUS
 62
     4
100
AcDbLine
 10
82.540261
 20
141.240233
 30
0.0
 11
83.316718
 21
144.13801
 31
0.0
  0
ENDBLK
  5
A9
330
9D
100
AcDbEntity
  8
0
100
AcDbBlockEnd
  0
BLOCK
  5
AB
330
AA
100
AcDbEntity
  8
0
100
AcDbBlockBegin
  2
*D10
 70
     1
 10
0.0
 20
0.0
 30
0.0
  3
*D10
  1

  0
TEXT
  5
AC
330
AA
100
AcDbEntity
  8
CSLAYER1
 62
     4
100
AcDbText
 10
107.29253
 20
128.373569
 30
0.0
 40
3.0
  1
R25
 50
61.82295270007927
 41
1.124999976258306
 51
15.0
  7
FX_FONT
 72
     5
 11
111.5423089999999
 21
136.307003
 31
0.0
100
AcDbText
  0
LINE
  5
AD
330
AA
100
AcDbEntity
  8
CSLAYER1
  6
CONTINUOUS
 62
     4
100
AcDbLine
 10
106.442744
 20
124.6694469999999
 30
0.0
 11
120.7948709999999
 21
151.461811
 31
0.0
  0
LINE
  5
AE
330
AA
100
AcDbEntity
  8
CSLAYER1
  6
CONTINUOUS
 62
     4
100
AcDbLine
 10
106.442744
 20
124.6694469999999
 30
0.0
 11
107.1266269999999
 21
127.590458
 31
0.0
  0
LINE
  5
AF
330
AA
100
AcDbEntity
  8
CSLAYER1
  6
CONTINUOUS
 62
     4
100
AcDbLine
 10
106.442744
 20
124.6694469999999
 30
0.0
 11
108.495509
 21
126.8571749999999
 31
0.0
  0
ENDBLK
  5
B0
330
AA
100
AcDbEntity
  8
0
100
AcDbBlockEnd
  0
BLOCK
  5
B2
330
B1
100
AcDbEntity
  8
0
100
AcDbBlockBegin
  2
*D11
 70
     1
 10
0.0
 20
0.0
 30
0.0
  3
*D11
  1

  0
TEXT
  5
B3
330
B1
100
AcDbEntity
  8
CSLAYER1
 62
     4
100
AcDbText
 10
20.321169
 20
150.2584379999998
 30
0.0
 40
3.0
  1
(0.6)
 41
1.153846153846153
 51
15.0
  7
FX_FONT
 72
     5
 11
35.321169
 21
150.2584379999998
 31
0.0
100
AcDbText
  0
LINE
  5
B4
330
B1
100
AcDbEntity
  8
CSLAYER1
  6
CONTINUOUS
 62
     4
100
AcDbLine
 10
28.440839
 20
149.2584439999999
 30
0.0
 11
29.640839
 21
149.2584439999999
 31
0.0
  0
LINE
  5
B5
330
B1
100
AcDbEntity
  8
CSLAYER1
  6
CONTINUOUS
 62
     4
100
AcDbLine
 10
38.248098
 20
139.451186
 30
0.0
 11
27.73373199999999
 21
149.965551
 31
0.0
  0
LINE
  5
B6
330
B1
100
AcDbEntity
  8
CSLAYER1
  6
CONTINUOUS
 62
     4
100
AcDbLine
 10
39.448098
 20
139.451186
 30
0.0
 11
28.933732
 21
149.965551
 31
0.0
  0
LINE
  5
B7
330
B1
100
AcDbEntity
  8
CSLAYER1
  6
CONTINUOUS
 62
     4
100
AcDbLine
 10
22.440839
 20
149.2584439999999
 30
0.0
 11
28.440839
 21
149.2584439999999
 31
0.0
  0
LINE
  5
B8
330
B1
100
AcDbEntity
  8
CSLAYER1
  6
CONTINUOUS
 62
     4
100
AcDbLine
 10
28.440839
 20
149.2584439999999
 30
0.0
 11
25.543062
 21
150.0349009999998
 31
0.0
  0
LINE
  5
B9
330
B1
100
AcDbEntity
  8
CSLAYER1
  6
CONTINUOUS
 62
     4
100
AcDbLine
 10
28.440839
 20
149.2584439999999
 30
0.0
 11
25.543062
 21
148.481987
 31
0.0
  0
LINE
  5
BA
330
B1
100
AcDbEntity
  8
CSLAYER1
  6
CONTINUOUS
 62
     4
100
AcDbLine
 10
29.640839
 20
149.2584439999999
 30
0.0
 11
32.900665
 21
149.2584439999999
 31
0.0
  0
LINE
  5
BB
330
B1
100
AcDbEntity
  8
CSLAYER1
  6
CONTINUOUS
 62
     4
100
AcDbLine
 10
29.640839
 20
149.2584439999999
 30
0.0
 11
32.538616
 21
150.0349009999998
 31
0.0
  0
LINE
  5
BC
330
B1
100
AcDbEntity
  8
CSLAYER1
  6
CONTINUOUS
 62
     4
100
AcDbLine
 10
29.640839
 20
149.2584439999999
 30
0.0
 11
32.538616
 21
148.481987
 31
0.0
  0
ENDBLK
  5
BD
330
B1
100
AcDbEntity
  8
0
100
AcDbBlockEnd
  0
BLOCK
  5
BF
330
BE
100
AcDbEntity
  8
0
100
AcDbBlockBegin
  2
*D12
 70
     1
 10
0.0
 20
0.0
 30
0.0
  3
*D12
  1

  0
TEXT
  5
C0
330
BE
100
AcDbEntity
  8
CSLAYER1
 62
     4
100
AcDbText
 10
48.200227
 20
171.622603
 30
0.0
 40
3.0
  1
45%%d
 50
337.5000057474579
 41
1.28571426436156
 51
15.0
  7
FX_FONT
 72
     5
 11
56.515143
 21
168.1784529999999
 31
0.0
100
AcDbText
  0
ARC
  5
C1
330
BE
100
AcDbEntity
  8
CSLAYER1
  6
CONTINUOUS
 62
     4
100
AcDbCircle
 10
38.95520399999997
 20
137.544079
 30
0.0
 40
34.022379
100
AcDbArc
 50
45.0
 51
90.0
  0
LINE
  5
C2
330
BE
100
AcDbEntity
  8
CSLAYER1
  6
CONTINUOUS
 62
     4
100
AcDbLine
 10
63.012659
 20
161.601534
 30
0.0
 11
60.41458299999999
 21
163.101534
 31
0.0
  0
LINE
  5
C3
330
BE
100
AcDbEntity
  8
CSLAYER1
  6
CONTINUOUS
 62
     4
100
AcDbLine
 10
63.012659
 20
161.601534
 30
0.0
 11
61.512659
 21
164.19961
 31
0.0
  0
LINE
  5
C4
330
BE
100
AcDbEntity
  8
CSLAYER1
  6
CONTINUOUS
 62
     4
100
AcDbLine
 10
38.95520399999997
 20
171.566458
 30
0.0
 11
41.852982
 21
172.3429149999999
 31
0.0
  0
LINE
  5
C5
330
BE
100
AcDbEntity
  8
CSLAYER1
  6
CONTINUOUS
 62
     4
100
AcDbLine
 10
38.95520399999997
 20
171.566458
 30
0.0
 11
41.852982
 21
170.7900009999999
 31
0.0
  0
LINE
  5
C6
330
BE
100
AcDbEntity
  8
CSLAYER1
  6
CONTINUOUS
 62
     4
100
AcDbLine
 10
55.262311
 20
153.851186
 30
0.0
 11
63.71976599999999
 21
162.30864
 31
0.0
  0
ENDBLK
  5
C7
330
BE
100
AcDbEntity
  8
0
100
AcDbBlockEnd
  0
BLOCK
  5
C9
330
C8
100
AcDbEntity
  8
0
100
AcDbBlockBegin
  2
*D13
 70
     1
 10
0.0
 20
0.0
 30
0.0
  3
*D13
  1

  0
TEXT
  5
CA
330
C8
100
AcDbEntity
  8
CSLAYER1
 62
     4
100
AcDbText
 10
55.010491
 20
150.48767
 30
0.0
 40
3.0
  1
R75
 50
355.415528007972
 41
1.124999975853513
 51
15.0
  7
FX_FONT
 72
     5
 11
63.981696
 21
149.768311
 31
0.0
100
AcDbText
  0
LINE
  5
CB
330
C8
100
AcDbEntity
  8
CSLAYER1
  6
CONTINUOUS
 62
     4
100
AcDbLine
 10
39.435117
 20
150.733381
 30
0.0
 11
66.67583499999999
 21
148.549078
 31
0.0
  0
LINE
  5
CC
330
C8
100
AcDbEntity
  8
CSLAYER1
  6
CONTINUOUS
 62
     4
100
AcDbLine
 10
39.435117
 20
150.733381
 30
0.0
 11
42.38568400000001
 21
151.275738
 31
0.0
  0
LINE
  5
CD
330
C8
100
AcDbEntity
  8
CSLAYER1
  6
CONTINUOUS
 62
     4
100
AcDbLine
 10
39.435117
 20
150.733381
 30
0.0
 11
42.261562
 21
149.7277919999999
 31
0.0
  0
ENDBLK
  5
CE
330
C8
100
AcDbEntity
  8
0
100
AcDbBlockEnd
  0
BLOCK
  5
D0
330
CF
100
AcDbEntity
  8
0
100
AcDbBlockBegin
  2
*D14
 70
     1
 10
0.0
 20
0.0
 30
0.0
  3
*D14
  1

  0
TEXT
  5
D1
330
CF
100
AcDbEntity
  8
CSLAYER1
 62
     4
100
AcDbText
 10
14.14421799999999
 20
129.269192
 30
0.0
 40
3.0
  1
60%%d
 50
300.0000020182752
 41
1.285714207269723
 51
15.0
  7
FX_FONT
 72
     5
 11
18.64421799999998
 21
121.4749639999999
 31
0.0
100
AcDbText
  0
ARC
  5
D2
330
CF
100
AcDbEntity
  8
CSLAYER1
  6
CONTINUOUS
 62
     4
100
AcDbCircle
 10
39.55520399999999
 20
138.744079
 30
0.0
 40
27.744003
100
AcDbArc
 50
180.0
 51
239.9999999999999
  0
LINE
  5
D3
330
CF
100
AcDbEntity
  8
CSLAYER1
  6
CONTINUOUS
 62
     4
100
AcDbLine
 10
11.811202
 20
138.744079
 30
0.0
 11
11.03474499999999
 21
135.846301
 31
0.0
  0
LINE
  5
D4
330
CF
100
AcDbEntity
  8
CSLAYER1
  6
CONTINUOUS
 62
     4
100
AcDbLine
 10
11.811202
 20
138.744079
 30
0.0
 11
12.587659
 21
135.846301
 31
0.0
  0
LINE
  5
D5
330
CF
100
AcDbEntity
  8
CSLAYER1
  6
CONTINUOUS
 62
     4
100
AcDbLine
 10
25.68320299999999
 20
114.717068
 30
0.0
 11
22.785426
 21
115.493525
 31
0.0
  0
LINE
  5
D6
330
CF
100
AcDbEntity
  8
CSLAYER1
  6
CONTINUOUS
 62
     4
100
AcDbLine
 10
25.68320299999999
 20
114.717068
 30
0.0
 11
23.56188299999999
 21
116.8383879999999
 31
0.0
  0
LINE
  5
D7
330
CF
100
AcDbEntity
  8
CSLAYER1
  6
CONTINUOUS
 62
     4
100
AcDbLine
 10
32.073238
 20
138.744079
 30
0.0
 11
10.81120199999999
 21
138.744079
 31
0.0
  0
LINE
  5
D8
330
CF
100
AcDbEntity
  8
CSLAYER1
  6
CONTINUOUS
 62
     4
100
AcDbLine
 10
38.458762
 20
136.844985
 30
0.0
 11
25.183203
 21
113.8510429999999
 31
0.0
  0
ENDBLK
  5
D9
330
CF
100
AcDbEntity
  8
0
100
AcDbBlockEnd
  0
BLOCK
  5
DB
330
DA
100
AcDbEntity
  8
0
100
AcDbBlockBegin
  2
*D15
 70
     1
 10
0.0
 20
0.0
 30
0.0
  3
*D15
  1

  0
TEXT
  5
DC
330
DA
100
AcDbEntity
  8
CSLAYER1
 62
     4
100
AcDbText
 10
38.58449199999999
 20
111.641506
 30
0.0
 40
3.0
  1
75%%d
 50
7.500001498516513
 41
1.28571432582311
 51
15.0
  7
FX_FONT
 72
     5
 11
47.507496
 21
112.8162419999999
 31
0.0
100
AcDbText
  0
ARC
  5
DD
330
DA
100
AcDbEntity
  8
CSLAYER1
  6
CONTINUOUS
 62
     4
100
AcDbCircle
 10
39.55520399999999
 20
138.744079
 30
0.0
 40
27.744003
100
AcDbArc
 50
239.9999999999999
 51
315.0
  0
LINE
  5
DE
330
DA
100
AcDbEntity
  8
CSLAYER1
  6
CONTINUOUS
 62
     4
100
AcDbLine
 10
25.68320299999999
 20
114.717068
 30
0.0
 11
28.580981
 21
113.940611
 31
0.0
  0
LINE
  5
DF
330
DA
100
AcDbEntity
  8
CSLAYER1
  6
CONTINUOUS
 62
     4
100
AcDbLine
 10
25.68320299999999
 20
114.717068
 30
0.0
 11
27.804523
 21
112.595748
 31
0.0
  0
LINE
  5
E0
330
DA
100
AcDbEntity
  8
CSLAYER1
  6
CONTINUOUS
 62
     4
100
AcDbLine
 10
59.173177
 20
119.126107
 30
0.0
 11
57.673177
 21
116.52803
 31
0.0
  0
LINE
  5
E1
330
DA
100
AcDbEntity
  8
CSLAYER1
  6
CONTINUOUS
 62
     4
100
AcDbLine
 10
59.173177
 20
119.126107
 30
0.0
 11
56.575101
 21
117.626107
 31
0.0
  0
LINE
  5
E2
330
DA
100
AcDbEntity
  8
CSLAYER1
  6
CONTINUOUS
 62
     4
100
AcDbLine
 10
55.262311
 20
123.0369719999999
 30
0.0
 11
59.880284
 21
118.419
 31
0.0
  0
ENDBLK
  5
E3
330
DA
100
AcDbEntity
  8
0
100
AcDbBlockEnd
  0
BLOCK
  5
E5
330
E4
100
AcDbEntity
  8
0
100
AcDbBlockBegin
  2
*D16
 70
     1
 10
0.0
 20
0.0
 30
0.0
  3
*D16
  1

  0
TEXT
  5
E6
330
E4
100
AcDbEntity
  8
CSLAYER1
 62
     4
100
AcDbText
 10
52.68578
 20
30.04445999999999
 30
0.0
 40
3.0
  1
5
 50
90.0
 41
1.500000000000005
 51
15.0
  7
FX_FONT
 72
     5
 11
52.68578
 21
33.04446
 31
0.0
100
AcDbText
  0
LINE
  5
E7
330
E4
100
AcDbEntity
  8
CSLAYER1
  6
CONTINUOUS
 62
     4
100
AcDbLine
 10
53.685779
 20
26.545322
 30
0.0
 11
53.685779
 21
36.54359799999999
 31
0.0
  0
LINE
  5
E8
330
E4
100
AcDbEntity
  8
CSLAYER1
  6
CONTINUOUS
 62
     4
100
AcDbLine
 10
53.685779
 20
26.545322
 30
0.0
 11
52.909321
 21
29.443099
 31
0.0
  0
LINE
  5
E9
330
E4
100
AcDbEntity
  8
CSLAYER1
  6
CONTINUOUS
 62
     4
100
AcDbLine
 10
53.685779
 20
26.545322
 30
0.0
 11
54.46223599999999
 21
29.443099
 31
0.0
  0
LINE
  5
EA
330
E4
100
AcDbEntity
  8
CSLAYER1
  6
CONTINUOUS
 62
     4
100
AcDbLine
 10
53.685779
 20
36.54359799999999
 30
0.0
 11
52.909321
 21
33.645821
 31
0.0
  0
LINE
  5
EB
330
E4
100
AcDbEntity
  8
CSLAYER1
  6
CONTINUOUS
 62
     4
100
AcDbLine
 10
53.685779
 20
36.54359799999999
 30
0.0
 11
54.46223599999999
 21
33.645821
 31
0.0
  0
LINE
  5
EC
330
E4
100
AcDbEntity
  8
CSLAYER1
  6
CONTINUOUS
 62
     4
100
AcDbLine
 10
64.01595799999999
 20
26.545322
 30
0.0
 11
52.685779
 21
26.545322
 31
0.0
  0
LINE
  5
ED
330
E4
100
AcDbEntity
  8
CSLAYER1
  6
CONTINUOUS
 62
     4
100
AcDbLine
 10
64.01595799999999
 20
36.54359799999999
 30
0.0
 11
52.685779
 21
36.54359799999999
 31
0.0
  0
ENDBLK
  5
EE
330
E4
100
AcDbEntity
  8
0
100
AcDbBlockEnd
  0
BLOCK
  5
19D
330
192
100
AcDbEntity
  8
0
100
AcDbBlockBegin
  2
*D17
 70
     1
 10
0.0
 20
0.0
 30
0.0
  3
*D17
  1

  0
ARC
  5
193
330
192
100
AcDbEntity
  8
CSLAYER1
 62
     0
100
AcDbCircle
 10
121.052632
 20
79.377638
 30
0.0
 40
25.93804858225617
100
AcDbArc
 50
150.397611005203
 51
164.5879626492451
  0
ARC
  5
194
330
192
100
AcDbEntity
  8
CSLAYER1
 62
     0
100
AcDbCircle
 10
121.052632
 20
79.377638
 30
0.0
 40
25.93804858225617
100
AcDbArc
 50
165.4112446050865
 51
179.6023887080699
  0
SOLID
  5
195
330
192
100
AcDbEntity
  8
CSLAYER1
 62
     0
100
AcDbTrace
 10
98.47413184558648
 20
92.20537624877406
 30
0.0
 11
98.52619715105051
 21
92.1755567255227
 31
0.0
 12
98.58962306807251
 22
92.34666240354048
 32
0.0
 13
98.58962306807251
 23
92.34666240354048
 33
0.0
  0
SOLID
  5
196
330
192
100
AcDbEntity
  8
CSLAYER1
 62
     0
100
AcDbTrace
 10
95.14520780225359
 20
79.55753282225291
 30
0.0
 11
95.08520816344129
 21
79.55774101062075
 31
0.0
 12
95.11458341774384
 22
79.37763800000002
 32
0.0
 13
95.11458341774384
 23
79.37763800000002
 33
0.0
  0
MTEXT
  5
197
330
192
100
AcDbEntity
  8
CSLAYER1
 62
     0
100
AcDbMText
 10
95.9984010076559
 20
86.09089902857219
 30
0.0
 40
0.18
 41
0.0
 71
     5
 72
     1
  1
\A1;30°
1001
ACAD
1000
MTEXTBEGIN
1070
    73
1070
     1
1070
    44
1040
1.0
1070
    74
1070
     0
1000
MTEXTEND
1000
MTEXTBEGIN
1070
    73
1070
     1
1070
    44
1040
1.0
1070
    74
1070
     0
1000
MTEXTEND
  0
POINT
  5
198
330
192
100
AcDbEntity
  8
DEFPOINTS
 62
     0
100
AcDbPoint
 10
96.67883917926424
 20
88.24897317500782
 30
0.0
  0
POINT
  5
199
330
192
100
AcDbEntity
  8
DEFPOINTS
 62
     0
100
AcDbPoint
 10
121.052632
 20
79.37763800000002
 30
0.0
  0
POINT
  5
19A
330
192
100
AcDbEntity
  8
DEFPOINTS
 62
     0
100
AcDbPoint
 10
77.02134500000003
 20
79.37763800000002
 30
0.0
  0
POINT
  5
19B
330
192
100
AcDbEntity
  8
DEFPOINTS
 62
     0
100
AcDbPoint
 10
120.052632
 20
79.37763800000003
 30
0.0
  0
POINT
  5
19C
330
192
100
AcDbEntity
  8
DEFPOINTS
 62
     0
100
AcDbPoint
 10
92.052632
 20
96.12079600000001
 30
0.0
  0
ENDBLK
  5
19E
330
192
100
AcDbEntity
  8
0
100
AcDbBlockEnd
  0
BLOCK
  5
1AB
330
19F
100
AcDbEntity
  8
0
100
AcDbBlockBegin
  2
*D18
 70
     1
 10
0.0
 20
0.0
 30
0.0
  3
*D18
  1

  0
LINE
  5
1A0
330
19F
100
AcDbEntity
  8
CSLAYER1
 62
     0
100
AcDbLine
 10
54.59939817382418
 20
153.188273173824
 30
0.0
 11
63.13993778952883
 21
161.7288127895285
 31
0.0
  0
ARC
  5
1A1
330
19F
100
AcDbEntity
  8
CSLAYER1
 62
     0
100
AcDbCircle
 10
38.95520399999998
 20
137.544079
 30
0.0
 40
34.0223785275345
100
AcDbArc
 50
45.30313143251333
 51
66.8092344070096
  0
ARC
  5
1A2
330
19F
100
AcDbEntity
  8
CSLAYER1
 62
     0
100
AcDbCircle
 10
38.95520399999998
 20
137.544079
 30
0.0
 40
34.0223785275345
100
AcDbArc
 50
68.18733293059413
 51
89.69686856748664
  0
SOLID
  5
1A3
330
19F
100
AcDbEntity
  8
CSLAYER1
 62
     0
100
AcDbTrace
 10
62.90620011321014
 20
161.7497448950981
 30
0.0
 11
62.86388608610788
 21
161.7072064053458
 31
0.0
 12
63.01265856891525
 22
161.6015335689152
 32
0.0
 13
63.01265856891525
 23
161.6015335689152
 33
0.0
  0
SOLID
  5
1A4
330
19F
100
AcDbEntity
  8
CSLAYER1
 62
     0
100
AcDbTrace
 10
39.13512401067453
 20
171.5359814753149
 30
0.0
 11
39.13528272973632
 21
171.5959812653833
 31
0.0
 12
38.95520400000004
 22
171.5664575275345
 32
0.0
 13
38.95520400000004
 23
171.5664575275345
 33
0.0
  0
MTEXT
  5
1A5
330
19F
100
AcDbEntity
  8
CSLAYER1
 62
     0
100
AcDbMText
 10
51.97500459214126
 20
168.9766581689404
 30
0.0
 40
0.18
 41
0.0
 71
     5
 72
     1
  1
\A1;45°
1001
ACAD
1000
MTEXTBEGIN
1070
    73
1070
     1
1070
    44
1040
1.0
1070
    74
1070
     0
1000
MTEXTEND
1000
MTEXTBEGIN
1070
    73
1070
     1
1070
    44
1040
1.0
1070
    74
1070
     0
1000
MTEXTEND
  0
POINT
  5
1A6
330
19F
100
AcDbEntity
  8
DEFPOINTS
 62
     0
100
AcDbPoint
 10
55.96639326376728
 20
167.008323102015
 30
0.0
  0
POINT
  5
1A7
330
19F
100
AcDbEntity
  8
DEFPOINTS
 62
     0
100
AcDbPoint
 10
40.15520399999997
 20
138.744079
 30
0.0
  0
POINT
  5
1A8
330
19F
100
AcDbEntity
  8
DEFPOINTS
 62
     0
100
AcDbPoint
 10
38.95520399999998
 20
174.220539
 30
0.0
  0
POINT
  5
1A9
330
19F
100
AcDbEntity
  8
DEFPOINTS
 62
     0
100
AcDbPoint
 10
38.95520399999997
 20
138.744079
 30
0.0
  0
POINT
  5
1AA
330
19F
100
AcDbEntity
  8
DEFPOINTS
 62
     0
100
AcDbPoint
 10
54.55520400000001
 20
153.1440789999998
 30
0.0
  0
ENDBLK
  5
1AC
330
19F
100
AcDbEntity
  8
0
100
AcDbBlockEnd
  0
BLOCK
  5
1BA
330
1AD
100
AcDbEntity
  8
0
100
AcDbBlockBegin
  2
*D19
 70
     1
 10
0.0
 20
0.0
 30
0.0
  3
*D19
  1

  0
LINE
  5
1AE
330
1AD
100
AcDbEntity
  8
CSLAYER1
 62
     0
100
AcDbLine
 10
33.010738
 20
138.744079
 30
0.0
 11
11.63120159699184
 21
138.744079
 31
0.0
  0
LINE
  5
1AF
330
1AD
100
AcDbEntity
  8
CSLAYER1
 62
     0
100
AcDbLine
 10
38.92751202614096
 20
137.6568833971709
 30
0.0
 11
25.59321447787375
 21
114.561176800569
 31
0.0
  0
ARC
  5
1B0
330
1AD
100
AcDbEntity
  8
CSLAYER1
 62
     0
100
AcDbCircle
 10
39.55520399999999
 20
138.744079
 30
0.0
 40
27.74400240300814
100
AcDbArc
 50
180.3717292930785
 51
209.5716988217001
  0
ARC
  5
1B1
330
1AD
100
AcDbEntity
  8
CSLAYER1
 62
     0
100
AcDbCircle
 10
39.55520399999999
 20
138.744079
 30
0.0
 40
27.74400240300814
100
AcDbArc
 50
210.4301855267487
 51
239.6282983785027
  0
SOLID
  5
1B2
330
1AD
100
AcDbEntity
  8
CSLAYER1
 62
     0
100
AcDbTrace
 10
11.78178566482391
 20
138.5639826287573
 30
0.0
 11
11.84178534912781
 21
138.5641772654189
 31
0.0
 12
11.81120159699183
 22
138.744079
 32
0.0
 13
11.81120159699183
 23
138.744079
 33
0.0
  0
SOLID
  5
1B3
330
1AD
100
AcDbEntity
  8
CSLAYER1
 62
     0
100
AcDbTrace
 10
25.54270675008908
 20
114.8334985224404
 30
0.0
 11
25.51253837269211
 21
114.7816345753746
 31
0.0
 12
25.6832144025877
 22
114.7170614167165
 32
0.0
 13
25.6832144025877
 23
114.7170614167165
 33
0.0
  0
MTEXT
  5
1B4
330
1AD
100
AcDbEntity
  8
CSLAYER1
 62
     0
100
AcDbMText
 10
15.5281964661514
 20
124.8720719964512
 30
0.0
 40
0.18
 41
0.0
 71
     5
 72
     1
  1
\A1;60°
1001
ACAD
1000
MTEXTBEGIN
1070
    73
1070
     1
1070
    44
1040
1.0
1070
    74
1070
     0
1000
MTEXTEND
1000
MTEXTBEGIN
1070
    73
1070
     1
1070
    44
1040
1.0
1070
    74
1070
     0
1000
MTEXTEND
  0
POINT
  5
1B5
330
1AD
100
AcDbEntity
  8
DEFPOINTS
 62
     0
100
AcDbPoint
 10
13.48437119843143
 20
129.2550671246369
 30
0.0
  0
POINT
  5
1B6
330
1AD
100
AcDbEntity
  8
DEFPOINTS
 62
     0
100
AcDbPoint
 10
38.95520399999997
 20
138.744079
 30
0.0
  0
POINT
  5
1B7
330
1AD
100
AcDbEntity
  8
DEFPOINTS
 62
     0
100
AcDbPoint
 10
38.958762
 20
137.71101
 30
0.0
  0
POINT
  5
1B8
330
1AD
100
AcDbEntity
  8
DEFPOINTS
 62
     0
100
AcDbPoint
 10
39.55520399999999
 20
138.7440789999999
 30
0.0
  0
POINT
  5
1B9
330
1AD
100
AcDbEntity
  8
DEFPOINTS
 62
     0
100
AcDbPoint
 10
33.07323799999998
 20
138.744079
 30
0.0
  0
ENDBLK
  5
1BB
330
1AD
100
AcDbEntity
  8
0
100
AcDbBlockEnd
  0
BLOCK
  5
1C9
330
1BC
100
AcDbEntity
  8
0
100
AcDbBlockBegin
  2
*D20
 70
     1
 10
0.0
 20
0.0
 30
0.0
  3
*D20
  1

  0
LINE
  5
1BD
330
1BC
100
AcDbEntity
  8
CSLAYER1
 62
     0
100
AcDbLine
 10
38.92751202614096
 20
137.6568833971709
 30
0.0
 11
25.59321428710475
 21
114.5611764701461
 31
0.0
  0
LINE
  5
1BE
330
1BC
100
AcDbEntity
  8
CSLAYER1
 62
     0
100
AcDbLine
 10
54.59939817382416
 20
123.6998848261757
 30
0.0
 11
59.30045572682534
 21
118.9988272731745
 31
0.0
  0
ARC
  5
1BF
330
1BC
100
AcDbEntity
  8
CSLAYER1
 62
     0
100
AcDbCircle
 10
39.55520399999997
 20
138.744079
 30
0.0
 40
27.74400278454718
100
AcDbArc
 50
240.3717569595491
 51
276.7133339266655
  0
ARC
  5
1C0
330
1BC
100
AcDbEntity
  8
CSLAYER1
 62
     0
100
AcDbCircle
 10
39.55520399999997
 20
138.744079
 30
0.0
 40
27.74400278454718
100
AcDbArc
 50
278.2881184471182
 51
314.6282707120333
  0
SOLID
  5
1C1
330
1BC
100
AcDbEntity
  8
CSLAYER1
 62
     0
100
AcDbTrace
 10
25.82447433414795
 20
114.6015380243559
 30
0.0
 11
25.85430559086681
 21
114.6535966079188
 31
0.0
 12
25.68321421181869
 22
114.7170610862938
 32
0.0
 13
25.68321421181869
 23
114.7170610862938
 33
0.0
  0
SOLID
  5
1C2
330
1BC
100
AcDbEntity
  8
CSLAYER1
 62
     0
100
AcDbTrace
 10
59.02434079121748
 20
119.0205227358415
 30
0.0
 11
59.06662934595662
 21
118.9779589232999
 31
0.0
 12
59.17317650621176
 22
119.1261064937882
 32
0.0
 13
59.17317650621176
 23
119.1261064937882
 33
0.0
  0
MTEXT
  5
1C3
330
1BC
100
AcDbEntity
  8
CSLAYER1
 62
     0
100
AcDbMText
 10
43.176529682718
 20
111.2374308797972
 30
0.0
 40
0.18
 41
0.0
 71
     5
 72
     1
  1
\A1;75°
1001
ACAD
1000
MTEXTBEGIN
1070
    73
1070
     1
1070
    44
1040
1.0
1070
    74
1070
     0
1000
MTEXTEND
1000
MTEXTBEGIN
1070
    73
1070
     1
1070
    44
1040
1.0
1070
    74
1070
     0
1000
MTEXTEND
  0
POINT
  5
1C4
330
1BC
100
AcDbEntity
  8
DEFPOINTS
 62
     0
100
AcDbPoint
 10
37.13716372936084
 20
111.105649743645
 30
0.0
  0
POINT
  5
1C5
330
1BC
100
AcDbEntity
  8
DEFPOINTS
 62
     0
100
AcDbPoint
 10
39.55520399999999
 20
138.744079
 30
0.0
  0
POINT
  5
1C6
330
1BC
100
AcDbEntity
  8
DEFPOINTS
 62
     0
100
AcDbPoint
 10
54.55520400000001
 20
123.7440789999999
 30
0.0
  0
POINT
  5
1C7
330
1BC
100
AcDbEntity
  8
DEFPOINTS
 62
     0
100
AcDbPoint
 10
39.55520399999999
 20
138.744079
 30
0.0
  0
POINT
  5
1C8
330
1BC
100
AcDbEntity
  8
DEFPOINTS
 62
     0
100
AcDbPoint
 10
38.958762
 20
137.71101
 30
0.0
  0
ENDBLK
  5
1CA
330
1BC
100
AcDbEntity
  8
0
100
AcDbBlockEnd
  0
ENDSEC
  0
SECTION
  2
ENTITIES
  0
POINT
  5
F0
330
1E
100
AcDbEntity
  8
CSLAYER1
 62
     3
100
AcDbPoint
 10
125.2499999999999
 20
21.75
 30
0.0
  0
POINT
  5
F1
330
1E
100
AcDbEntity
  8
CSLAYER1
 62
     3
100
AcDbPoint
 10
135.4999999999999
 20
21.75
 30
0.0
  0
TEXT
  5
F2
330
1E
100
AcDbEntity
  8
CSLAYER1
 62
     3
100
AcDbText
 10
119.0499999999999
 20
25.5
 30
0.0
 40
2.5
  1
刃開キハ
 41
1.110447761194031
  7
FX_FONT
 72
     5
 11
131.45
 21
25.5
 31
0.0
100
AcDbText
  0
TEXT
  5
F3
330
1E
100
AcDbEntity
  8
CSLAYER1
 62
     3
100
AcDbText
 10
119.0
 20
20.5
 30
0.0
 40
2.5
  1
切刃部有効
 41
0.872093023255814
  7
FX_FONT
 72
     5
 11
131.4999999999999
 21
20.5
 31
0.0
100
AcDbText
  0
TEXT
  5
F4
330
1E
100
AcDbEntity
  8
CSLAYER1
 62
     3
100
AcDbText
 10
134.25
 20
25.5
 30
0.0
 40
2.5
  1
5
 41
1.499999999999982
  7
FX_FONT
 72
     5
 11
136.7499999999999
 21
25.5
 31
0.0
100
AcDbText
  0
TEXT
  5
F5
330
1E
100
AcDbEntity
  8
CSLAYER1
 62
     3
100
AcDbText
 10
131.4999999999999
 20
20.5
 30
0.0
 40
2.5
  1
13.5
 41
0.8727272727272728
  7
FX_FONT
 72
     5
 11
139.5
 21
20.5
 31
0.0
100
AcDbText
  0
INSERT
  5
F6
330
1E
100
AcDbEntity
  8
CSLAYER1
100
AcDbBlockReference
  2
FXDIM0001
 10
0.0
 20
0.0
 30
0.0
 41
0.5
 42
0.5
 43
0.5
  0
INSERT
  5
F7
330
1E
100
AcDbEntity
  8
CSLAYER1
100
AcDbBlockReference
  2
FXDIM0002
 10
0.0
 20
0.0
 30
0.0
 41
0.5
 42
0.5
 43
0.5
  0
POINT
  5
F8
330
1E
100
AcDbEntity
  8
CSLAYER1
 62
     3
100
AcDbPoint
 10
126.5
 20
9.5
 30
0.0
  0
TEXT
  5
F9
330
1E
100
AcDbEntity
  8
CSLAYER1
 62
     3
100
AcDbText
 10
122.1249999999999
 20
8.625
 30
0.0
 40
1.75
  1
N10AS
 41
1.071428571428576
  7
FX_FONT
 72
     5
 11
130.875
 21
8.625
 31
0.0
100
AcDbText
  0
LINE
  5
FA
330
1E
100
AcDbEntity
  8
CSLAYER1
  6
CONTINUOUS
 62
     3
100
AcDbLine
 10
119.0
 20
20.0
 30
0.0
 11
139.5
 21
20.0
 31
0.0
  0
LINE
  5
FB
330
1E
100
AcDbEntity
  8
CSLAYER1
  6
CONTINUOUS
 62
     3
100
AcDbLine
 10
139.5
 20
25.0
 30
0.0
 11
119.0
 21
25.0
 31
0.0
  0
LINE
  5
FC
330
1E
100
AcDbEntity
  8
CSLAYER1
  6
CONTINUOUS
 62
     3
100
AcDbLine
 10
90.01369949999995
 20
48.688819
 30
0.0
 11
46.02631599999999
 21
48.688819
 31
0.0
  0
LINE
  5
FD
330
1E
100
AcDbEntity
  8
CSLAYER1
  6
CONTINUOUS
 62
     3
100
AcDbLine
 10
46.02631599999999
 20
48.688819
 30
0.0
 11
46.02631599999999
 21
48.060398
 31
0.0
  0
LINE
  5
FE
330
1E
100
AcDbEntity
  8
CSLAYER1
  6
CONTINUOUS
 62
     3
100
AcDbLine
 10
46.02631599999999
 20
48.060398
 30
0.0
 11
60.526316
 21
39.688819
 31
0.0
  0
LINE
  5
FF
330
1E
100
AcDbEntity
  8
CSLAYER1
  6
CONTINUOUS
 62
     3
100
AcDbLine
 10
60.526316
 20
39.688819
 30
0.0
 11
90.01369949999995
 21
39.688819
 31
0.0
  0
LINE
  5
100
330
1E
100
AcDbEntity
  8
CSLAYER1
  6
CONTINUOUS
 62
     3
100
AcDbLine
 10
81.026316
 20
59.37203949999995
 30
0.0
 11
65.026316
 21
59.37203949999995
 31
0.0
  0
ARC
  5
101
330
1E
100
AcDbEntity
  8
CSLAYER1
  6
CONTINUOUS
 62
     3
100
AcDbCircle
 10
60.23139499999995
 20
71.67203949999991
 30
0.0
 40
2.5
100
AcDbArc
 50
270.0
 51
349.809411
  0
ARC
  5
102
330
1E
100
AcDbEntity
  8
CSLAYER1
  6
CONTINUOUS
 62
     3
100
AcDbCircle
 10
60.23139499999995
 20
67.0720395
 30
0.0
 40
2.5
100
AcDbArc
 50
66.92608199999999
 51
90.0
  0
LINE
  5
103
330
1E
100
AcDbEntity
  8
CSLAYER1
  6
CONTINUOUS
 62
     3
100
AcDbLine
 10
60.23139499999995
 20
69.5720395
 30
0.0
 11
57.7176585
 21
69.5720395
 31
0.0
  0
LINE
  5
104
330
1E
100
AcDbEntity
  8
CSLAYER1
  6
CONTINUOUS
 62
     3
100
AcDbLine
 10
57.7176585
 20
69.17203949999995
 30
0.0
 11
60.23139499999995
 21
69.17203949999995
 31
0.0
  0
LINE
  5
105
330
1E
100
AcDbEntity
  8
CSLAYER1
  6
CONTINUOUS
 62
     3
100
AcDbLine
 10
46.02631599999999
 20
70.62011650000001
 30
0.0
 11
46.02631599999999
 21
68.1239625
 31
0.0
  0
ARC
  5
106
330
1E
100
AcDbEntity
  8
CSLAYER1
  6
CONTINUOUS
 62
     3
100
AcDbCircle
 10
65.026316
 20
84.3720395
 30
0.0
 40
25.0
100
AcDbArc
 50
220.5358019999999
 51
270.0
  0
LINE
  5
107
330
1E
100
AcDbEntity
  8
CSLAYER1
  6
CONTINUOUS
 62
     3
100
AcDbLine
 10
46.02631599999999
 20
69.3720395
 30
0.0
 11
57.7176585
 21
69.3720395
 31
0.0
  0
LINE
  5
108
330
1E
100
AcDbEntity
  8
CSLAYER1
  6
CONTINUOUS
 62
     3
100
AcDbLine
 10
61.02270799999989
 20
69.4434995
 30
0.0
 11
64.0338545
 21
79.29251500000001
 31
0.0
  0
LINE
  5
109
330
1E
100
AcDbEntity
  8
CSLAYER1
  6
CONTINUOUS
 62
     3
100
AcDbLine
 10
65.026316
 20
79.3720395
 30
0.0
 11
81.026316
 21
79.3720395
 31
0.0
  0
LINE
  5
10A
330
1E
100
AcDbEntity
  8
CSLAYER1
  6
CONTINUOUS
 62
     3
100
AcDbLine
 10
84.593175
 20
67.8720395
 30
0.0
 11
82.0158385
 21
59.4419515
 31
0.0
  0
ARC
  5
10B
330
1E
100
AcDbEntity
  8
CSLAYER1
  6
CONTINUOUS
 62
     3
100
AcDbCircle
 10
73.02631600000001
 20
69.3720395
 30
0.0
 40
10.5
100
AcDbArc
 50
287.75279
 51
3.822554
  0
LINE
  5
10C
330
1E
100
AcDbEntity
  8
CSLAYER1
  6
CONTINUOUS
 62
     3
100
AcDbLine
 10
64.0338545
 20
43.438819
 30
0.0
 11
64.0338545
 21
39.688819
 31
0.0
  0
LINE
  5
10D
330
1E
100
AcDbEntity
  8
CSLAYER1
  6
CONTINUOUS
 62
     3
100
AcDbLine
 10
64.78385450000001
 20
44.18881900000001
 30
0.0
 11
81.26583849999995
 21
44.18881900000001
 31
0.0
  0
ARC
  5
10E
330
1E
100
AcDbEntity
  8
CSLAYER1
  6
CONTINUOUS
 62
     3
100
AcDbCircle
 10
81.26583849999995
 20
44.938819
 30
0.0
 40
0.75
100
AcDbArc
 50
270.0
 51
0.0
  0
LINE
  5
10F
330
1E
100
AcDbEntity
  8
CSLAYER1
  6
CONTINUOUS
 62
     3
100
AcDbLine
 10
82.0158385
 20
44.938819
 30
0.0
 11
82.0158385
 21
48.688819
 31
0.0
  0
LINE
  5
110
330
1E
100
AcDbEntity
  8
CSLAYER1
  6
CONTINUOUS
 62
     3
100
AcDbLine
 10
76.22787800000001
 20
48.688819
 30
0.0
 11
76.22787800000001
 21
44.688819
 31
0.0
  0
LINE
  5
111
330
1E
100
AcDbEntity
  8
CSLAYER1
  6
CONTINUOUS
 62
     3
100
AcDbLine
 10
76.22787800000001
 20
44.688819
 30
0.0
 11
75.727878
 21
44.18881900000001
 31
0.0
  0
LINE
  5
112
330
1E
100
AcDbEntity
  8
CSLAYER1
  6
CONTINUOUS
 62
     3
100
AcDbLine
 10
70.3247535
 20
44.18881900000001
 30
0.0
 11
69.8247535
 21
43.688819
 31
0.0
  0
LINE
  5
113
330
1E
100
AcDbEntity
  8
CSLAYER1
  6
CONTINUOUS
 62
     3
100
AcDbLine
 10
69.8247535
 20
43.688819
 30
0.0
 11
69.8247535
 21
39.688819
 31
0.0
  0
ARC
  5
114
330
1E
100
AcDbEntity
  8
CSLAYER1
  6
CONTINUOUS
 62
     3
100
AcDbCircle
 10
64.78385450000001
 20
43.438819
 30
0.0
 40
0.75
100
AcDbArc
 50
90.0
 51
180.0
  0
CIRCLE
  5
115
330
1E
100
AcDbEntity
  8
CSLAYER1
  6
CONTINUOUS
 62
     3
100
AcDbCircle
 10
73.02631600000001
 20
69.3720395
 30
0.0
 40
2.049999999999998
  0
CIRCLE
  5
116
330
1E
100
AcDbEntity
  8
CSLAYER1
  6
CONTINUOUS
 62
     3
100
AcDbCircle
 10
73.02631600000001
 20
69.3720395
 30
0.0
 40
6.4
  0
ARC
  5
117
330
1E
100
AcDbEntity
  8
CSLAYER1
  6
CONTINUOUS
 62
     3
100
AcDbCircle
 10
84.25128800000001
 20
68.62203949999996
 30
0.0
 40
0.75
100
AcDbArc
 50
176.1774459999999
 51
270.0
  0
ARC
  5
118
330
1E
100
AcDbEntity
  8
CSLAYER1
  6
CONTINUOUS
 62
     3
100
AcDbCircle
 10
84.25128800000001
 20
70.12203949999996
 30
0.0
 40
0.75
100
AcDbArc
 50
90.0
 51
183.8225539999998
  0
ARC
  5
119
330
1E
100
AcDbEntity
  8
CSLAYER1
  6
CONTINUOUS
 62
     3
100
AcDbCircle
 10
73.02631600000001
 20
69.3720395
 30
0.0
 40
10.5
100
AcDbArc
 50
107.7527899999999
 51
169.809411
  0
ARC
  5
11A
330
1E
100
AcDbEntity
  8
CSLAYER1
  6
CONTINUOUS
 62
     3
100
AcDbCircle
 10
65.026316
 20
54.3720395
 30
0.0
 40
25.0
100
AcDbArc
 50
90.0
 51
139.464198
  0
LINE
  5
11B
330
1E
100
AcDbEntity
  8
CSLAYER1
  6
CONTINUOUS
 62
     3
100
AcDbLine
 10
27.277602
 20
61.87203949999995
 30
0.0
 11
19.77760199999999
 21
69.3720395
 31
0.0
  0
LINE
  5
11C
330
1E
100
AcDbEntity
  8
CSLAYER1
  6
CONTINUOUS
 62
     3
100
AcDbLine
 10
19.77760199999999
 20
69.3720395
 30
0.0
 11
19.479381
 21
68.855505
 31
0.0
  0
ARC
  5
11D
330
1E
100
AcDbEntity
  8
CSLAYER1
  6
CONTINUOUS
 62
     3
100
AcDbCircle
 10
94.47760200000001
 20
69.3720395
 30
0.0
 40
75.0
100
AcDbArc
 50
172.3377439999999
 51
180.0
  0
LINE
  5
11E
330
1E
100
AcDbEntity
  8
CSLAYER1
  6
CONTINUOUS
 62
     3
100
AcDbLine
 10
20.1472585
 20
79.3720395
 30
0.0
 11
27.277602
 21
79.3720395
 31
0.0
  0
LINE
  5
11F
330
1E
100
AcDbEntity
  8
CSLAYER1
  6
CONTINUOUS
 62
     3
100
AcDbLine
 10
27.277602
 20
76.5720394999999
 30
0.0
 11
20.07760199999998
 21
69.3720395
 31
0.0
  0
LINE
  5
120
330
1E
100
AcDbEntity
  8
CSLAYER1
  6
CONTINUOUS
 62
     3
100
AcDbLine
 10
20.07760199999998
 20
69.3720395
 30
0.0
 11
19.47760199999998
 21
69.3720395
 31
0.0
  0
ARC
  5
121
330
1E
100
AcDbEntity
  8
CSLAYER1
  6
CONTINUOUS
 62
     3
100
AcDbCircle
 10
94.47760200000001
 20
69.3720395
 30
0.0
 40
75.0
100
AcDbArc
 50
180.3946059999999
 51
187.641334
  0
LINE
  5
122
330
1E
100
AcDbEntity
  8
CSLAYER1
  6
CONTINUOUS
 62
     3
100
AcDbLine
 10
20.143612
 20
59.39918249999995
 30
0.0
 11
27.277602
 21
59.39918249999995
 31
0.0
  0
LINE
  5
123
330
1E
100
AcDbEntity
  8
CSLAYER1
  6
CENTER
 62
     4
100
AcDbLine
 10
16.536619
 20
69.3720395
 30
0.0
 11
19.47760199999998
 21
69.3720395
 31
0.0
  0
LINE
  5
124
330
1E
100
AcDbEntity
  8
CSLAYER1
  6
CENTER
 62
     4
100
AcDbLine
 10
43.226316
 20
69.3720395
 30
0.0
 11
46.02631599999999
 21
69.3720395
 31
0.0
  0
LINE
  5
125
330
1E
100
AcDbEntity
  8
CSLAYER1
  6
CENTER
 62
     4
100
AcDbLine
 10
73.02631600000001
 20
54.9720395
 30
0.0
 11
73.02631600000001
 21
83.17203949999996
 31
0.0
  0
LINE
  5
126
330
1E
100
AcDbEntity
  8
CSLAYER1
  6
CENTER
 62
     4
100
AcDbLine
 10
57.7176585
 20
69.3720395
 30
0.0
 11
139.097862
 21
69.3720395
 31
0.0
  0
LINE
  5
127
330
1E
100
AcDbEntity
  8
CSLAYER1
  6
CENTER
 62
     4
100
AcDbLine
 10
89.02631600000001
 20
44.18881900000001
 30
0.0
 11
82.0158385
 21
44.18881900000001
 31
0.0
  0
LINE
  5
128
330
1E
100
AcDbEntity
  8
CSLAYER1
  6
CENTER
 62
     4
100
AcDbLine
 10
73.02631600000001
 20
36.46424749999999
 30
0.0
 11
73.02631600000001
 21
52.5133905
 31
0.0
  0
LINE
  5
129
330
1E
100
AcDbEntity
  8
CSLAYER1
  6
CENTER
 62
     4
100
AcDbLine
 10
64.0338545
 20
44.18881900000001
 30
0.0
 11
56.826316
 21
44.18881900000001
 31
0.0
  0
LINE
  5
12A
330
1E
100
AcDbEntity
  8
CSLAYER1
  6
DASHED
 62
     4
100
AcDbLine
 10
60.526316
 20
48.688819
 30
0.0
 11
59.33399599999995
 21
41.9268365
 31
0.0
  0
ARC
  5
12B
330
1E
100
AcDbEntity
  8
CSLAYER1
  6
DASHED
 62
     4
100
AcDbCircle
 10
58.34918799999996
 20
42.100485
 30
0.0
 40
1.0
100
AcDbArc
 50
239.9999999999999
 51
350.0
  0
LINE
  5
12C
330
1E
100
AcDbEntity
  8
CSLAYER1
  6
CONTINUOUS
 62
     3
100
AcDbLine
 10
46.02631599999999
 20
70.62011650000001
 30
0.0
 11
56.42694200000001
 21
76.3852775
 31
0.0
  0
LINE
  5
12D
330
1E
100
AcDbEntity
  8
CSLAYER1
  6
CONTINUOUS
 62
     3
100
AcDbLine
 10
60.526316
 20
69.55458299999989
 30
0.0
 11
57.83225649999994
 21
75.90138899999995
 31
0.0
  0
ARC
  5
12E
330
1E
100
AcDbEntity
  8
CSLAYER1
  6
CONTINUOUS
 62
     3
100
AcDbCircle
 10
20.3750085
 20
70.96338900000001
 30
0.0
 40
37.5
100
AcDbArc
 50
357.8736869999998
 51
8.223039999999999
  0
ARC
  5
12F
330
1E
100
AcDbEntity
  8
CSLAYER1
  6
CONTINUOUS
 62
     3
100
AcDbCircle
 10
56.9117515
 20
75.51065799999995
 30
0.0
 40
1.0
100
AcDbArc
 50
22.99999999999998
 51
119.0
  0
ARC
  5
130
330
1E
100
AcDbEntity
  8
CSLAYER1
  6
CONTINUOUS
 62
     3
100
AcDbCircle
 10
56.9117515
 20
63.23342099999995
 30
0.0
 40
1.0
100
AcDbArc
 50
241.0
 51
337.0
  0
ARC
  5
131
330
1E
100
AcDbEntity
  8
CSLAYER1
  6
CONTINUOUS
 62
     3
100
AcDbCircle
 10
20.3750085
 20
67.78069000000001
 30
0.0
 40
37.5
100
AcDbArc
 50
351.7769599999998
 51
2.126313
  0
LINE
  5
132
330
1E
100
AcDbEntity
  8
CSLAYER1
  6
CONTINUOUS
 62
     3
100
AcDbLine
 10
60.526316
 20
69.18949599999995
 30
0.0
 11
57.83225649999994
 21
62.84269
 31
0.0
  0
LINE
  5
133
330
1E
100
AcDbEntity
  8
CSLAYER1
  6
CONTINUOUS
 62
     3
100
AcDbLine
 10
46.02631599999999
 20
68.1239625
 30
0.0
 11
56.42694200000001
 21
62.35880149999999
 31
0.0
  0
LINE
  5
137
330
1E
100
AcDbEntity
  8
CSLAYER1
  6
CONTINUOUS
 62
     3
100
AcDbLine
 10
57.7176585
 20
69.5720395
 30
0.0
 11
57.7176585
 21
69.17203949999995
 31
0.0
  0
LINE
  5
139
330
1E
100
AcDbEntity
  8
CSLAYER1
  6
CENTER
 62
     4
100
AcDbLine
 10
20.07760199999998
 20
69.3720395
 30
0.0
 11
28.0392905
 21
69.3720395
 31
0.0
  0
LINE
  5
13E
330
1E
100
AcDbEntity
  8
CSLAYER1
  6
CONTINUOUS
 62
     3
100
AcDbLine
 10
27.277602
 20
76.5720394999999
 30
0.0
 11
27.277602
 21
79.3720395
 31
0.0
  0
LINE
  5
13F
330
1E
100
AcDbEntity
  8
CSLAYER1
  6
CONTINUOUS
 62
     3
100
AcDbLine
 10
27.277602
 20
61.87203949999995
 30
0.0
 11
27.277602
 21
59.37203949999995
 31
0.0
  0
LINE
  5
146
330
1E
100
AcDbEntity
  8
CSLAYER1
  6
CONTINUOUS
 62
     3
100
AcDbLine
 10
46.6705705
 20
17.1558815
 30
0.0
 11
44.16762949999998
 21
17.388595
 31
0.0
  0
LINE
  5
147
330
1E
100
AcDbEntity
  8
CSLAYER1
  6
CONTINUOUS
 62
     3
100
AcDbLine
 10
32.6235215
 20
19.514516
 30
0.0
 11
32.507979
 21
18.27179899999999
 31
0.0
  0
LINE
  5
148
330
1E
100
AcDbEntity
  8
CSLAYER1
  6
CONTINUOUS
 62
     3
100
AcDbLine
 10
32.507979
 20
18.27179899999999
 30
0.0
 11
44.149114
 21
17.189454
 31
0.0
  0
LINE
  5
149
330
1E
100
AcDbEntity
  8
CSLAYER1
  6
CONTINUOUS
 62
     3
100
AcDbLine
 10
47.44658549999999
 20
16.95463699999999
 30
0.0
 11
51.35658949999996
 21
26.4825945
 31
0.0
  0
LINE
  5
14A
330
1E
100
AcDbEntity
  8
CSLAYER1
  6
CONTINUOUS
 62
     3
100
AcDbLine
 10
52.352151
 20
26.4698985
 30
0.0
 11
59.392029
 21
25.8153595
 31
0.0
  0
CIRCLE
  5
14B
330
1E
100
AcDbEntity
  8
CSLAYER1
  6
CONTINUOUS
 62
     3
100
AcDbCircle
 10
59.392029
 20
15.77223
 30
0.0
 40
2.049999999999998
  0
CIRCLE
  5
14C
330
1E
100
AcDbEntity
  8
CSLAYER1
  6
CONTINUOUS
 62
     3
100
AcDbCircle
 10
59.392029
 20
15.77223
 30
0.0
 40
6.4
  0
ARC
  5
14D
330
1E
100
AcDbEntity
  8
CSLAYER1
  6
CONTINUOUS
 62
     3
100
AcDbCircle
 10
59.392029
 20
15.77223
 30
0.0
 40
10.5
100
AcDbArc
 50
113.0646459999999
 51
175.1212679999999
  0
ARC
  5
14E
330
1E
100
AcDbEntity
  8
CSLAYER1
  6
CONTINUOUS
 62
     3
100
AcDbCircle
 10
50.03773499999995
 20
1.5772595
 30
0.0
 40
25.0
100
AcDbArc
 50
84.68814400000002
 51
134.152342
  0
LINE
  5
14F
330
1E
100
AcDbEntity
  8
CSLAYER1
  6
CENTER
 62
     4
100
AcDbLine
 10
59.392029
 20
4.0203265
 30
0.0
 11
59.392029
 21
27.7094065
 31
0.0
  0
LINE
  5
150
330
1E
100
AcDbEntity
  8
CSLAYER1
  6
CENTER
 62
     4
100
AcDbLine
 10
29.848106
 20
15.77223
 30
0.0
 11
67.409991
 21
15.77223
 31
0.0
  0
LINE
  5
151
330
1E
100
AcDbEntity
  8
CSLAYER1
  6
CONTINUOUS
 62
     3
100
AcDbLine
 10
32.6235215
 20
19.514516
 30
0.0
 11
43.51320199999999
 21
24.29206399999999
 31
0.0
  0
LINE
  5
152
330
1E
100
AcDbEntity
  8
CSLAYER1
  6
CONTINUOUS
 62
     3
100
AcDbLine
 10
46.9626085
 20
17.11119749999999
 30
0.0
 11
44.86768499999999
 21
23.6801545
 31
0.0
  0
ARC
  5
153
330
1E
100
AcDbEntity
  8
CSLAYER1
  6
CONTINUOUS
 62
     3
100
AcDbCircle
 10
7.114150999999995
 20
22.231026
 30
0.0
 40
37.5
100
AcDbArc
 50
352.56183
 51
2.911183
  0
ARC
  5
154
330
1E
100
AcDbEntity
  8
CSLAYER1
  6
CONTINUOUS
 62
     3
100
AcDbCircle
 10
43.91496049999999
 20
23.3763185
 30
0.0
 40
1.0
100
AcDbArc
 50
17.688144
 51
113.688144
  0
LINE
  5
155
330
1E
100
AcDbEntity
  8
CSLAYER1
  6
CONTINUOUS
 62
     3
100
AcDbLine
 10
44.16762949999998
 20
17.388595
 30
0.0
 11
44.149114
 21
17.189454
 31
0.0
  0
LINE
  5
156
330
1E
100
AcDbEntity
  8
CSLAYER1
  6
CONTINUOUS
 62
     3
100
AcDbLine
 10
46.6705705
 20
14.388578
 30
0.0
 11
44.16762949999998
 21
14.15586499999999
 31
0.0
  0
LINE
  5
157
330
1E
100
AcDbEntity
  8
CSLAYER1
  6
CONTINUOUS
 62
     3
100
AcDbLine
 10
32.6235215
 20
12.029944
 30
0.0
 11
32.507979
 21
13.272661
 31
0.0
  0
LINE
  5
158
330
1E
100
AcDbEntity
  8
CSLAYER1
  6
CONTINUOUS
 62
     3
100
AcDbLine
 10
32.507979
 20
13.272661
 30
0.0
 11
44.149114
 21
14.355006
 31
0.0
  0
LINE
  5
159
330
1E
100
AcDbEntity
  8
CSLAYER1
  6
CONTINUOUS
 62
     3
100
AcDbLine
 10
52.352151
 20
5.074561
 30
0.0
 11
66.5924655
 21
6.3985675
 31
0.0
  0
ARC
  5
15A
330
1E
100
AcDbEntity
  8
CSLAYER1
  6
CONTINUOUS
 62
     3
100
AcDbCircle
 10
50.03773499999995
 20
29.9672005
 30
0.0
 40
25.0
100
AcDbArc
 50
225.8476579999999
 51
275.3118559999999
  0
LINE
  5
15B
330
1E
100
AcDbEntity
  8
CSLAYER1
  6
CONTINUOUS
 62
     3
100
AcDbLine
 10
32.6235215
 20
12.029944
 30
0.0
 11
43.51320199999999
 21
7.2523955
 31
0.0
  0
LINE
  5
15C
330
1E
100
AcDbEntity
  8
CSLAYER1
  6
CONTINUOUS
 62
     3
100
AcDbLine
 10
46.9626085
 20
14.4332625
 30
0.0
 11
44.86768499999999
 21
7.864305499999995
 31
0.0
  0
ARC
  5
15D
330
1E
100
AcDbEntity
  8
CSLAYER1
  6
CONTINUOUS
 62
     3
100
AcDbCircle
 10
7.114150999999995
 20
9.3134335
 30
0.0
 40
37.5
100
AcDbArc
 50
357.0888169999998
 51
7.438169999999998
  0
ARC
  5
15E
330
1E
100
AcDbEntity
  8
CSLAYER1
  6
CONTINUOUS
 62
     3
100
AcDbCircle
 10
43.91496049999999
 20
8.168141499999995
 30
0.0
 40
1.0
100
AcDbArc
 50
246.311856
 51
342.3118559999998
  0
LINE
  5
15F
330
1E
100
AcDbEntity
  8
CSLAYER1
  6
CONTINUOUS
 62
     3
100
AcDbLine
 10
44.16762949999998
 20
14.15586499999999
 30
0.0
 11
44.149114
 21
14.355006
 31
0.0
  0
ARC
  5
160
330
1E
100
AcDbEntity
  8
CSLAYER1
  6
CONTINUOUS
 62
     3
100
AcDbCircle
 10
46.439129
 20
16.877842
 30
0.0
 40
2.5
100
AcDbArc
 50
275.3118559999999
 51
355.1212680000001
  0
ARC
  5
161
330
1E
100
AcDbEntity
  8
CSLAYER1
  6
CONTINUOUS
 62
     3
100
AcDbCircle
 10
46.439129
 20
14.66661799999999
 30
0.0
 40
2.5
100
AcDbArc
 50
26.247199
 51
84.68814400000002
  0
LINE
  5
162
330
1E
100
AcDbEntity
  8
CSLAYER1
  6
CONTINUOUS
 62
     3
100
AcDbLine
 10
55.2784495
 20
25.43289549999999
 30
0.0
 11
64.50491949999999
 21
26.290735
 31
0.0
  0
LINE
  5
164
330
1E
100
AcDbEntity
  8
CSLAYER1
  6
CONTINUOUS
 62
     3
100
AcDbLine
 10
20.465778
 20
5.77223
 30
0.0
 11
12.965778
 21
13.27223
 31
0.0
  0
LINE
  5
165
330
1E
100
AcDbEntity
  8
CSLAYER1
  6
CONTINUOUS
 62
     3
100
AcDbLine
 10
12.965778
 20
13.27223
 30
0.0
 11
12.6675565
 21
12.7556955
 31
0.0
  0
ARC
  5
166
330
1E
100
AcDbEntity
  8
CSLAYER1
  6
CONTINUOUS
 62
     3
100
AcDbCircle
 10
87.665778
 20
18.27223
 30
0.0
 40
75.0
100
AcDbArc
 50
172.3377439999999
 51
180.0
  0
LINE
  5
167
330
1E
100
AcDbEntity
  8
CSLAYER1
  6
CONTINUOUS
 62
     3
100
AcDbLine
 10
13.33543399999999
 20
28.27223
 30
0.0
 11
20.465778
 21
28.27223
 31
0.0
  0
LINE
  5
168
330
1E
100
AcDbEntity
  8
CSLAYER1
  6
CONTINUOUS
 62
     3
100
AcDbLine
 10
20.465778
 20
25.47223
 30
0.0
 11
13.26577799999999
 21
18.27223
 31
0.0
  0
LINE
  5
169
330
1E
100
AcDbEntity
  8
CSLAYER1
  6
CONTINUOUS
 62
     3
100
AcDbLine
 10
13.26577799999999
 20
18.27223
 30
0.0
 11
12.665778
 21
18.27223
 31
0.0
  0
ARC
  5
16A
330
1E
100
AcDbEntity
  8
CSLAYER1
  6
CONTINUOUS
 62
     3
100
AcDbCircle
 10
87.665778
 20
13.27223
 30
0.0
 40
75.0
100
AcDbArc
 50
180.3946059999999
 51
187.641334
  0
LINE
  5
16B
330
1E
100
AcDbEntity
  8
CSLAYER1
  6
CONTINUOUS
 62
     3
100
AcDbLine
 10
13.3317875
 20
3.299373
 30
0.0
 11
20.465778
 21
3.299373
 31
0.0
  0
LINE
  5
16C
330
1E
100
AcDbEntity
  8
CSLAYER1
  6
CENTER
 62
     4
100
AcDbLine
 10
9.724794500000001
 20
15.77223
 30
0.0
 11
22.21149449999999
 21
15.77223
 31
0.0
  0
LINE
  5
16D
330
1E
100
AcDbEntity
  8
CSLAYER1
  6
CONTINUOUS
 62
     3
100
AcDbLine
 10
20.465778
 20
25.47223
 30
0.0
 11
20.465778
 21
28.27223
 31
0.0
  0
LINE
  5
16E
330
1E
100
AcDbEntity
  8
CSLAYER1
  6
CONTINUOUS
 62
     3
100
AcDbLine
 10
20.465778
 20
5.77223
 30
0.0
 11
20.465778
 21
3.272229999999999
 31
0.0
  0
LINE
  5
16F
330
1E
100
AcDbEntity
  8
CSLAYER1
  6
CONTINUOUS
 62
     3
100
AcDbLine
 10
131.5543585
 20
62.97347099999999
 30
0.0
 11
81.026316
 21
59.364325
 31
0.0
  0
LINE
  5
170
330
1E
100
AcDbEntity
  8
CSLAYER1
  6
CONTINUOUS
 62
     3
100
AcDbLine
 10
81.026316
 20
79.3720395
 30
0.0
 11
131.5543585
 21
75.7628935
 31
0.0
  0
LINE
  5
171
330
1E
100
AcDbEntity
  8
CSLAYER1
  6
CONTINUOUS
 62
     3
100
AcDbLine
 10
132.5263159999999
 20
70.8720395
 30
0.0
 11
132.5263159999999
 21
67.8720395
 31
0.0
  0
ARC
  5
172
330
1E
100
AcDbEntity
  8
CSLAYER1
  6
CONTINUOUS
 62
     3
100
AcDbCircle
 10
131.126876
 20
69.7781415
 30
0.0
 40
6.0
100
AcDbArc
 50
10.50471
 51
85.914383
  0
LINE
  5
173
330
1E
100
AcDbEntity
  8
CSLAYER1
  6
CONTINUOUS
 62
     3
100
AcDbLine
 10
127.5263159999999
 20
70.8720395
 30
0.0
 11
127.5263159999999
 21
67.8720395
 31
0.0
  0
ARC
  5
174
330
1E
100
AcDbEntity
  8
CSLAYER1
  6
CONTINUOUS
 62
     3
100
AcDbCircle
 10
131.126876
 20
68.9582235
 30
0.0
 40
6.0
100
AcDbArc
 50
274.085617
 51
349.49529
  0
LINE
  5
175
330
1E
100
AcDbEntity
  8
CSLAYER1
  6
CENTER
 62
     4
100
AcDbLine
 10
130.0263159999999
 20
64.87632499999995
 30
0.0
 11
130.0263159999999
 21
73.507754
 31
0.0
  0
LINE
  5
176
330
1E
100
AcDbEntity
  8
CSLAYER1
  6
CONTINUOUS
 62
     3
100
AcDbLine
 10
137.0263159999999
 20
67.8720395
 30
0.0
 11
84.25128800000001
 21
67.8720395
 31
0.0
  0
LINE
  5
177
330
1E
100
AcDbEntity
  8
CSLAYER1
  6
CONTINUOUS
 62
     3
100
AcDbLine
 10
84.25128800000001
 20
70.8720395
 30
0.0
 11
137.0263159999999
 21
70.8720395
 31
0.0
  0
LINE
  5
178
330
1E
100
AcDbEntity
  8
CSLAYER1
  6
CONTINUOUS
 62
     3
100
AcDbLine
 10
133.588926
 20
40.6159515
 30
0.0
 11
90.01369949999995
 21
39.688819
 31
0.0
  0
LINE
  5
179
330
1E
100
AcDbEntity
  8
CSLAYER1
  6
CONTINUOUS
 62
     3
100
AcDbLine
 10
90.01369949999995
 20
48.688819
 30
0.0
 11
133.588926
 21
47.7616865
 31
0.0
  0
ARC
  5
17A
330
1E
100
AcDbEntity
  8
CSLAYER1
  6
CONTINUOUS
 62
     3
100
AcDbCircle
 10
133.5144749999999
 20
44.2624785
 30
0.0
 40
3.5
100
AcDbArc
 50
358.794089
 51
88.781125
  0
ARC
  5
17B
330
1E
100
AcDbEntity
  8
CSLAYER1
  6
CONTINUOUS
 62
     3
100
AcDbCircle
 10
133.5144749999999
 20
44.1151595
 30
0.0
 40
3.5
100
AcDbArc
 50
271.2188749999999
 51
1.205910999999999
  0
LINE
  5
17C
330
1E
100
AcDbEntity
  8
CSLAYER1
  6
CENTER
 62
     4
100
AcDbLine
 10
138.4070724999999
 20
44.18881900000001
 30
0.0
 11
133.3264269999999
 21
44.18881900000001
 31
0.0
  0
POINT
  5
17D
330
1E
100
AcDbEntity
  8
CSLAYER1
 62
     3
100
AcDbPoint
 10
125.2499999999999
 20
26.75
 30
0.0
  0
POINT
  5
17E
330
1E
100
AcDbEntity
  8
CSLAYER1
 62
     3
100
AcDbPoint
 10
135.4999999999999
 20
26.75
 30
0.0
  0
LINE
  5
17F
330
1E
100
AcDbEntity
  8
CSLAYER1
  6
DOT
 62
     3
100
AcDbLine
 10
2.5
 20
0.5
 30
0.0
 11
142.0
 21
0.5
 31
0.0
  0
LINE
  5
180
330
1E
100
AcDbEntity
  8
CSLAYER1
  6
DOT
 62
     3
100
AcDbLine
 10
142.0
 20
0.5
 30
0.0
 11
142.0
 21
97.5
 31
0.0
  0
LINE
  5
181
330
1E
100
AcDbEntity
  8
CSLAYER1
  6
DOT
 62
     3
100
AcDbLine
 10
142.0
 20
97.5
 30
0.0
 11
2.5
 21
97.5
 31
0.0
  0
LINE
  5
182
330
1E
100
AcDbEntity
  8
CSLAYER1
  6
DOT
 62
     3
100
AcDbLine
 10
2.5
 20
97.5
 30
0.0
 11
2.5
 21
0.5
 31
0.0
  0
LINE
  5
183
330
1E
100
AcDbEntity
  8
CSLAYER1
  6
DOT
 62
     3
100
AcDbLine
 10
142.0
 20
49.0
 30
0.0
 11
144.0
 21
49.0
 31
0.0
  0
LINE
  5
184
330
1E
100
AcDbEntity
  8
CSLAYER1
  6
DOT
 62
     3
100
AcDbLine
 10
2.5
 20
49.0
 30
0.0
 11
0.5
 21
49.0
 31
0.0
  0
LINE
  5
185
330
1E
100
AcDbEntity
  8
CSLAYER1
  6
DOT
 62
     3
100
AcDbLine
 10
72.25
 20
97.5
 30
0.0
 11
72.25
 21
99.50000000000001
 31
0.0
  0
TEXT
  5
1E4
330
1E
100
AcDbEntity
  8
CSLAYER1
 62
     4
100
AcDbText
 10
10.1605845
 20
75.12921899999991
 30
0.0
 40
1.5
  1
(0.6)
 41
1.153846153846153
 51
15.0
  7
FX_FONT
 72
     5
 11
17.6605845
 21
75.12921899999991
 31
0.0
100
AcDbText
  0
LINE
  5
1E5
330
1E
100
AcDbEntity
  8
CSLAYER1
 62
     4
100
AcDbLine
 10
14.2204195
 20
74.62922199999995
 30
0.0
 11
14.8204195
 21
74.62922199999995
 31
0.0
  0
LINE
  5
1E6
330
1E
100
AcDbEntity
  8
CSLAYER1
 62
     4
100
AcDbLine
 10
19.124049
 20
69.725593
 30
0.0
 11
13.86686599999999
 21
74.9827755
 31
0.0
  0
LINE
  5
1E7
330
1E
100
AcDbEntity
  8
CSLAYER1
 62
     4
100
AcDbLine
 10
19.724049
 20
69.725593
 30
0.0
 11
14.466866
 21
74.9827755
 31
0.0
  0
LINE
  5
1E8
330
1E
100
AcDbEntity
  8
CSLAYER1
 62
     4
100
AcDbLine
 10
11.2204195
 20
74.62922199999995
 30
0.0
 11
14.2204195
 21
74.62922199999995
 31
0.0
  0
LINE
  5
1E9
330
1E
100
AcDbEntity
  8
CSLAYER1
 62
     4
100
AcDbLine
 10
14.2204195
 20
74.62922199999995
 30
0.0
 11
12.771531
 21
75.01745049999991
 31
0.0
  0
LINE
  5
1EA
330
1E
100
AcDbEntity
  8
CSLAYER1
 62
     4
100
AcDbLine
 10
14.2204195
 20
74.62922199999995
 30
0.0
 11
12.771531
 21
74.2409935
 31
0.0
  0
LINE
  5
1EB
330
1E
100
AcDbEntity
  8
CSLAYER1
 62
     4
100
AcDbLine
 10
14.8204195
 20
74.62922199999995
 30
0.0
 11
16.4503325
 21
74.62922199999995
 31
0.0
  0
LINE
  5
1EC
330
1E
100
AcDbEntity
  8
CSLAYER1
 62
     4
100
AcDbLine
 10
14.8204195
 20
74.62922199999995
 30
0.0
 11
16.269308
 21
75.01745049999991
 31
0.0
  0
LINE
  5
1ED
330
1E
100
AcDbEntity
  8
CSLAYER1
 62
     4
100
AcDbLine
 10
14.8204195
 20
74.62922199999995
 30
0.0
 11
16.269308
 21
74.2409935
 31
0.0
  0
TEXT
  5
1EE
330
1E
100
AcDbEntity
  8
CSLAYER1
 62
     4
100
AcDbText
 10
27.5052455
 20
75.243835
 30
0.0
 40
1.5
  1
R75
 50
355.415528007972
 41
1.124999975853513
 51
15.0
  7
FX_FONT
 72
     5
 11
31.990848
 21
74.8841555
 31
0.0
100
AcDbText
  0
LINE
  5
1EF
330
1E
100
AcDbEntity
  8
CSLAYER1
 62
     4
100
AcDbLine
 10
19.7175585
 20
75.3666905
 30
0.0
 11
33.33791749999999
 21
74.274539
 31
0.0
  0
LINE
  5
1F0
330
1E
100
AcDbEntity
  8
CSLAYER1
 62
     4
100
AcDbLine
 10
19.7175585
 20
75.3666905
 30
0.0
 11
21.192842
 21
75.637869
 31
0.0
  0
LINE
  5
1F1
330
1E
100
AcDbEntity
  8
CSLAYER1
 62
     4
100
AcDbLine
 10
19.7175585
 20
75.3666905
 30
0.0
 11
21.130781
 21
74.86389599999995
 31
0.0
  0
TEXT
  5
1F2
330
1E
100
AcDbEntity
  8
CSLAYER1
 62
     4
100
AcDbText
 10
58.0263175
 20
89.957237
 30
0.0
 40
1.5
  1
27
 41
1.2
 51
15.0
  7
FX_FONT
 72
     5
 11
61.0263175
 21
89.957237
 31
0.0
100
AcDbText
  0
LINE
  5
1F3
330
1E
100
AcDbEntity
  8
CSLAYER1
 62
     4
100
AcDbLine
 10
46.02631599999999
 20
89.457237
 30
0.0
 11
73.02631600000001
 21
89.457237
 31
0.0
  0
LINE
  5
1F4
330
1E
100
AcDbEntity
  8
CSLAYER1
 62
     4
100
AcDbLine
 10
46.02631599999999
 20
89.457237
 30
0.0
 11
47.47520449999999
 21
89.84546550000001
 31
0.0
  0
LINE
  5
1F5
330
1E
100
AcDbEntity
  8
CSLAYER1
 62
     4
100
AcDbLine
 10
46.02631599999999
 20
89.457237
 30
0.0
 11
47.47520449999999
 21
89.06900849999999
 31
0.0
  0
LINE
  5
1F6
330
1E
100
AcDbEntity
  8
CSLAYER1
 62
     4
100
AcDbLine
 10
73.02631600000001
 20
89.457237
 30
0.0
 11
71.577427
 21
89.84546550000001
 31
0.0
  0
LINE
  5
1F7
330
1E
100
AcDbEntity
  8
CSLAYER1
 62
     4
100
AcDbLine
 10
73.02631600000001
 20
89.457237
 30
0.0
 11
71.577427
 21
89.06900849999999
 31
0.0
  0
LINE
  5
1F8
330
1E
100
AcDbEntity
  8
CSLAYER1
 62
     4
100
AcDbLine
 10
46.02631599999999
 20
71.12011650000001
 30
0.0
 11
46.02631599999999
 21
89.957237
 31
0.0
  0
LINE
  5
1F9
330
1E
100
AcDbEntity
  8
CSLAYER1
 62
     4
100
AcDbLine
 10
73.02631600000001
 20
83.67203949999995
 30
0.0
 11
73.02631600000001
 21
89.957237
 31
0.0
  0
TEXT
  5
1FA
330
1E
100
AcDbEntity
  8
CSLAYER1
 62
     4
100
AcDbText
 10
37.77013400000001
 20
65.62204
 30
0.0
 40
1.5
  1
20~21
 50
90.0
 41
1.111111111111104
 51
15.0
  7
FX_FONT
 72
     5
 11
37.77013400000001
 21
73.12203999999995
 31
0.0
100
AcDbText
  0
LINE
  5
1FB
330
1E
100
AcDbEntity
  8
CSLAYER1
 62
     4
100
AcDbLine
 10
38.2701305
 20
59.37203949999995
 30
0.0
 11
38.2701305
 21
79.3720395
 31
0.0
  0
LINE
  5
1FC
330
1E
100
AcDbEntity
  8
CSLAYER1
 62
     4
100
AcDbLine
 10
38.2701305
 20
59.37203949999995
 30
0.0
 11
37.8819015
 21
60.820928
 31
0.0
  0
LINE
  5
1FD
330
1E
100
AcDbEntity
  8
CSLAYER1
 62
     4
100
AcDbLine
 10
38.2701305
 20
59.37203949999995
 30
0.0
 11
38.658359
 21
60.820928
 31
0.0
  0
LINE
  5
1FE
330
1E
100
AcDbEntity
  8
CSLAYER1
 62
     4
100
AcDbLine
 10
38.2701305
 20
79.3720395
 30
0.0
 11
37.8819015
 21
77.9231505
 31
0.0
  0
LINE
  5
1FF
330
1E
100
AcDbEntity
  8
CSLAYER1
 62
     4
100
AcDbLine
 10
38.2701305
 20
79.3720395
 30
0.0
 11
38.658359
 21
77.9231505
 31
0.0
  0
LINE
  5
200
330
1E
100
AcDbEntity
  8
CSLAYER1
 62
     4
100
AcDbLine
 10
64.52631600000001
 20
59.37203949999995
 30
0.0
 11
37.7701305
 21
59.37203949999995
 31
0.0
  0
LINE
  5
201
330
1E
100
AcDbEntity
  8
CSLAYER1
 62
     4
100
AcDbLine
 10
64.52631600000001
 20
79.3720395
 30
0.0
 11
37.7701305
 21
79.3720395
 31
0.0
  0
TEXT
  5
202
330
1E
100
AcDbEntity
  8
CSLAYER1
 62
     4
100
AcDbText
 10
40.5747225
 20
67.17280600000001
 30
0.0
 40
1.5
  1
2.5
 50
90.0
 41
1.125
 51
15.0
  7
FX_FONT
 72
     5
 11
40.5747225
 21
71.67280600000001
 31
0.0
100
AcDbText
  0
LINE
  5
203
330
1E
100
AcDbEntity
  8
CSLAYER1
 62
     4
100
AcDbLine
 10
41.2701305
 20
68.1239625
 30
0.0
 11
41.2701305
 21
70.62011650000001
 31
0.0
  0
LINE
  5
204
330
1E
100
AcDbEntity
  8
CSLAYER1
 62
     4
100
AcDbLine
 10
45.526316
 20
68.1239625
 30
0.0
 11
40.7701305
 21
68.1239625
 31
0.0
  0
LINE
  5
205
330
1E
100
AcDbEntity
  8
CSLAYER1
 62
     4
100
AcDbLine
 10
45.526316
 20
70.62011650000001
 30
0.0
 11
40.7701305
 21
70.62011650000001
 31
0.0
  0
LINE
  5
206
330
1E
100
AcDbEntity
  8
CSLAYER1
 62
     4
100
AcDbLine
 10
41.2701305
 20
65.1239625
 30
0.0
 11
41.2701305
 21
68.1239625
 31
0.0
  0
LINE
  5
207
330
1E
100
AcDbEntity
  8
CSLAYER1
 62
     4
100
AcDbLine
 10
41.2701305
 20
68.1239625
 30
0.0
 11
40.88190149999999
 21
66.67507399999999
 31
0.0
  0
LINE
  5
208
330
1E
100
AcDbEntity
  8
CSLAYER1
 62
     4
100
AcDbLine
 10
41.2701305
 20
68.1239625
 30
0.0
 11
41.658359
 21
66.67507399999999
 31
0.0
  0
LINE
  5
209
330
1E
100
AcDbEntity
  8
CSLAYER1
 62
     4
100
AcDbLine
 10
41.2701305
 20
70.62011650000001
 30
0.0
 11
41.2701305
 21
73.62011650000001
 31
0.0
  0
LINE
  5
20A
330
1E
100
AcDbEntity
  8
CSLAYER1
 62
     4
100
AcDbLine
 10
41.2701305
 20
70.62011650000001
 30
0.0
 11
40.88190149999999
 21
72.069005
 31
0.0
  0
LINE
  5
20B
330
1E
100
AcDbEntity
  8
CSLAYER1
 62
     4
100
AcDbLine
 10
41.2701305
 20
70.62011650000001
 30
0.0
 11
41.658359
 21
72.069005
 31
0.0
  0
TEXT
  5
20C
330
1E
100
AcDbEntity
  8
CSLAYER1
 62
     4
100
AcDbText
 10
53.64626499999999
 20
64.1867845
 30
0.0
 40
1.5
  1
R25
 50
61.82295270007927
 41
1.124999976258306
 51
15.0
  7
FX_FONT
 72
     5
 11
55.77115449999995
 21
68.1535015
 31
0.0
100
AcDbText
  0
LINE
  5
20D
330
1E
100
AcDbEntity
  8
CSLAYER1
 62
     4
100
AcDbLine
 10
53.221372
 20
62.33472349999995
 30
0.0
 11
60.39743549999995
 21
75.7309055
 31
0.0
  0
LINE
  5
20E
330
1E
100
AcDbEntity
  8
CSLAYER1
 62
     4
100
AcDbLine
 10
53.221372
 20
62.33472349999995
 30
0.0
 11
53.56331349999995
 21
63.79522900000001
 31
0.0
  0
LINE
  5
20F
330
1E
100
AcDbEntity
  8
CSLAYER1
 62
     4
100
AcDbLine
 10
53.221372
 20
62.33472349999995
 30
0.0
 11
54.24775450000001
 21
63.42858749999995
 31
0.0
  0
LINE
  5
210
330
1E
100
AcDbEntity
  8
CSLAYER1
  6
CONTINUOUS
 62
     4
100
AcDbLine
 10
72.42695400000001
 20
67.41161449999999
 30
0.0
 11
68.5310865
 21
52.8720395
 31
0.0
  0
LINE
  5
211
330
1E
100
AcDbEntity
  8
CSLAYER1
  6
CONTINUOUS
 62
     4
100
AcDbLine
 10
72.42695400000001
 20
67.41161449999999
 30
0.0
 11
72.42695400000001
 21
65.9116145
 31
0.0
  0
LINE
  5
212
330
1E
100
AcDbEntity
  8
CSLAYER1
  6
CONTINUOUS
 62
     4
100
AcDbLine
 10
72.42695400000001
 20
67.41161449999999
 30
0.0
 11
71.67695400000001
 21
66.1125765
 31
0.0
  0
LINE
  5
213
330
1E
100
AcDbEntity
  8
CSLAYER1
  6
CONTINUOUS
 62
     4
100
AcDbLine
 10
68.5310865
 20
52.8720395
 30
0.0
 11
61.53108649999995
 21
52.8720395
 31
0.0
  0
TEXT
  5
214
330
1E
100
AcDbEntity
  8
CSLAYER1
 62
     4
100
AcDbText
 10
62.03108999999995
 20
53.37204
 30
0.0
 40
1.5
  1
%%c4.1
 41
1.142857142857153
 51
15.0
  7
FX_FONT
 72
     5
 11
68.03109
 21
53.37204
 31
0.0
100
AcDbText
  0
TEXT
  5
215
330
1E
100
AcDbEntity
  8
CSLAYER1
 62
     4
100
AcDbText
 10
38.51067349999999
 20
43.9784585
 30
0.0
 40
1.5
  1
9   
 50
90.0
 41
1.428571428571428
 51
15.0
  7
FX_FONT
 72
     5
 11
38.51067349999999
 21
49.9784585
 31
0.0
100
AcDbText
  0
TEXT
  5
216
330
1E
100
AcDbEntity
  8
CSLAYER1
 62
     4
100
AcDbText
 10
37.76067349999999
 20
49.9784585
 30
0.0
 40
0.75
  1
   0
 50
90.0
 41
1.621621621621594
 51
15.0
  7
FX_FONT
 72
     5
 11
37.76067349999999
 21
52.97845849999995
 31
0.0
100
AcDbText
  0
TEXT
  5
217
330
1E
100
AcDbEntity
  8
CSLAYER1
 62
     4
100
AcDbText
 10
38.51067349999999
 20
49.9784585
 30
0.0
 40
0.75
  1
-0.15
 50
90.0
 41
1.071428571428557
 51
15.0
  7
FX_FONT
 72
     5
 11
38.51067349999999
 21
53.72845849999995
 31
0.0
100
AcDbText
  0
LINE
  5
218
330
1E
100
AcDbEntity
  8
CSLAYER1
 62
     4
100
AcDbLine
 10
39.0106725
 20
39.688819
 30
0.0
 11
39.0106725
 21
48.688819
 31
0.0
  0
LINE
  5
219
330
1E
100
AcDbEntity
  8
CSLAYER1
 62
     4
100
AcDbLine
 10
39.0106725
 20
39.688819
 30
0.0
 11
38.622444
 21
41.137708
 31
0.0
  0
LINE
  5
21A
330
1E
100
AcDbEntity
  8
CSLAYER1
 62
     4
100
AcDbLine
 10
39.0106725
 20
39.688819
 30
0.0
 11
39.398901
 21
41.137708
 31
0.0
  0
LINE
  5
21B
330
1E
100
AcDbEntity
  8
CSLAYER1
 62
     4
100
AcDbLine
 10
39.0106725
 20
48.688819
 30
0.0
 11
38.622444
 21
47.23993049999999
 31
0.0
  0
LINE
  5
21C
330
1E
100
AcDbEntity
  8
CSLAYER1
 62
     4
100
AcDbLine
 10
39.0106725
 20
48.688819
 30
0.0
 11
39.398901
 21
47.23993049999999
 31
0.0
  0
LINE
  5
21D
330
1E
100
AcDbEntity
  8
CSLAYER1
 62
     4
100
AcDbLine
 10
60.026316
 20
39.688819
 30
0.0
 11
38.51067249999999
 21
39.688819
 31
0.0
  0
LINE
  5
21E
330
1E
100
AcDbEntity
  8
CSLAYER1
 62
     4
100
AcDbLine
 10
45.526316
 20
48.688819
 30
0.0
 11
38.51067249999999
 21
48.688819
 31
0.0
  0
TEXT
  5
21F
330
1E
100
AcDbEntity
  8
CSLAYER1
 62
     4
100
AcDbText
 10
41.77873050000001
 20
37.202006
 30
0.0
 40
1.676398
  1
切刃部有効13.5
 50
330.000000419929
 41
0.6292969723215096
 51
15.0
  7
FX_FONT
 72
     5
 11
50.610346
 21
32.1030705
 31
0.0
100
AcDbText
  0
LINE
  5
220
330
1E
100
AcDbEntity
  8
CSLAYER1
 62
     4
100
AcDbLine
 10
40.012597
 20
37.6443315
 30
0.0
 11
51.70394
 21
30.8943315
 31
0.0
  0
LINE
  5
221
330
1E
100
AcDbEntity
  8
CSLAYER1
 62
     4
100
AcDbLine
 10
40.012597
 20
37.6443315
 30
0.0
 11
41.46148549999998
 21
37.256103
 31
0.0
  0
LINE
  5
222
330
1E
100
AcDbEntity
  8
CSLAYER1
 62
     4
100
AcDbLine
 10
40.012597
 20
37.6443315
 30
0.0
 11
41.07325699999999
 21
36.583671
 31
0.0
  0
LINE
  5
223
330
1E
100
AcDbEntity
  8
CSLAYER1
 62
     4
100
AcDbLine
 10
51.70394
 20
30.8943315
 30
0.0
 11
50.255051
 21
31.28255999999999
 31
0.0
  0
LINE
  5
224
330
1E
100
AcDbEntity
  8
CSLAYER1
 62
     4
100
AcDbLine
 10
51.70394
 20
30.8943315
 30
0.0
 11
50.6432795
 21
31.95499149999999
 31
0.0
  0
LINE
  5
225
330
1E
100
AcDbEntity
  8
CSLAYER1
 62
     4
100
AcDbLine
 10
45.77631599999999
 20
47.627385
 30
0.0
 11
39.76259699999999
 21
37.21131849999999
 31
0.0
  0
LINE
  5
226
330
1E
100
AcDbEntity
  8
CSLAYER1
 62
     4
100
AcDbLine
 10
57.46765849999995
 20
40.87738499999999
 30
0.0
 11
51.45394
 21
30.4613185
 31
0.0
  0
TEXT
  5
227
330
1E
100
AcDbEntity
  8
CSLAYER1
 62
     4
100
AcDbText
 10
63.776314
 20
32.119457
 30
0.0
 40
1.5
  1
12.5
 41
1.09090909090909
 51
15.0
  7
FX_FONT
 72
     5
 11
69.77631399999999
 21
32.119457
 31
0.0
100
AcDbText
  0
LINE
  5
228
330
1E
100
AcDbEntity
  8
CSLAYER1
 62
     4
100
AcDbLine
 10
60.526316
 20
31.6194555
 30
0.0
 11
73.02631600000001
 21
31.6194555
 31
0.0
  0
LINE
  5
229
330
1E
100
AcDbEntity
  8
CSLAYER1
 62
     4
100
AcDbLine
 10
60.526316
 20
31.6194555
 30
0.0
 11
61.9752045
 21
32.00768449999999
 31
0.0
  0
LINE
  5
22A
330
1E
100
AcDbEntity
  8
CSLAYER1
 62
     4
100
AcDbLine
 10
60.526316
 20
31.6194555
 30
0.0
 11
61.9752045
 21
31.231227
 31
0.0
  0
LINE
  5
22B
330
1E
100
AcDbEntity
  8
CSLAYER1
 62
     4
100
AcDbLine
 10
73.02631600000001
 20
31.6194555
 30
0.0
 11
71.577427
 21
32.00768449999999
 31
0.0
  0
LINE
  5
22C
330
1E
100
AcDbEntity
  8
CSLAYER1
 62
     4
100
AcDbLine
 10
73.02631600000001
 20
31.6194555
 30
0.0
 11
71.577427
 21
31.231227
 31
0.0
  0
LINE
  5
22D
330
1E
100
AcDbEntity
  8
CSLAYER1
 62
     4
100
AcDbLine
 10
60.526316
 20
39.188819
 30
0.0
 11
60.526316
 21
31.1194555
 31
0.0
  0
LINE
  5
22E
330
1E
100
AcDbEntity
  8
CSLAYER1
 62
     4
100
AcDbLine
 10
73.02631600000001
 20
35.9642475
 30
0.0
 11
73.02631600000001
 21
31.1194555
 31
0.0
  0
TEXT
  5
22F
330
1E
100
AcDbEntity
  8
CSLAYER1
 62
     4
100
AcDbText
 10
26.34289
 20
15.02222999999999
 30
0.0
 40
1.5
  1
5
 50
90.0
 41
1.500000000000005
 51
15.0
  7
FX_FONT
 72
     5
 11
26.34289
 21
16.52223
 31
0.0
100
AcDbText
  0
LINE
  5
230
330
1E
100
AcDbEntity
  8
CSLAYER1
 62
     4
100
AcDbLine
 10
26.8428895
 20
13.272661
 30
0.0
 11
26.8428895
 21
18.27179899999999
 31
0.0
  0
LINE
  5
231
330
1E
100
AcDbEntity
  8
CSLAYER1
 62
     4
100
AcDbLine
 10
26.8428895
 20
13.272661
 30
0.0
 11
26.4546605
 21
14.7215495
 31
0.0
  0
LINE
  5
232
330
1E
100
AcDbEntity
  8
CSLAYER1
 62
     4
100
AcDbLine
 10
26.8428895
 20
13.272661
 30
0.0
 11
27.23111799999999
 21
14.7215495
 31
0.0
  0
LINE
  5
233
330
1E
100
AcDbEntity
  8
CSLAYER1
 62
     4
100
AcDbLine
 10
26.8428895
 20
18.27179899999999
 30
0.0
 11
26.4546605
 21
16.8229105
 31
0.0
  0
LINE
  5
234
330
1E
100
AcDbEntity
  8
CSLAYER1
 62
     4
100
AcDbLine
 10
26.8428895
 20
18.27179899999999
 30
0.0
 11
27.23111799999999
 21
16.8229105
 31
0.0
  0
LINE
  5
235
330
1E
100
AcDbEntity
  8
CSLAYER1
 62
     4
100
AcDbLine
 10
32.00797899999999
 20
13.272661
 30
0.0
 11
26.3428895
 21
13.272661
 31
0.0
  0
LINE
  5
236
330
1E
100
AcDbEntity
  8
CSLAYER1
 62
     4
100
AcDbLine
 10
32.00797899999999
 20
18.27179899999999
 30
0.0
 11
26.3428895
 21
18.27179899999999
 31
0.0
  0
ENDSEC
  0
SECTION
  2
OBJECTS
  0
DICTIONARY
  5
C
330
0
100
AcDbDictionary
  3
ACAD_GROUP
350
D
  3
ACAD_LAYOUT
350
19
  3
ACAD_MLINESTYLE
350
16
  3
ACAD_PLOTSETTINGS
350
18
1001
ACAD
1000
TREAT_AS_HARD
1070
     0
1000
TREAT_AS_HARD
1070
     0
1000
TREAT_AS_HARD
1070
     0
  0
DICTIONARY
  5
18F
330
1E
100
AcDbDictionary
  3
ACAD_LAYOUTSELFREF
350
23B
1001
ACAD
1000
TREAT_AS_HARD
1070
     0
1000
TREAT_AS_HARD
1070
     0
  0
DICTIONARY
  5
18D
330
1A
100
AcDbDictionary
  3
ACAD_LAYOUTSELFREF
350
23A
1001
ACAD
1000
TREAT_AS_HARD
1070
     0
1000
TREAT_AS_HARD
1070
     0
  0
DICTIONARY
  5
D
102
{ACAD_REACTORS
330
C
102
}
330
C
100
AcDbDictionary
1001
ACAD
1000
TREAT_AS_HARD
1070
     0
1000
TREAT_AS_HARD
1070
     0
1000
TREAT_AS_HARD
1070
     0
  0
DICTIONARY
  5
19
102
{ACAD_REACTORS
330
C
102
}
330
C
100
AcDbDictionary
1001
ACAD
1000
TREAT_AS_HARD
1070
     0
1000
TREAT_AS_HARD
1070
     0
1000
TREAT_AS_HARD
1070
     0
  0
DICTIONARY
  5
16
102
{ACAD_REACTORS
330
C
102
}
330
C
100
AcDbDictionary
  3
STANDARD
350
17
1001
ACAD
1000
TREAT_AS_HARD
1070
     0
1000
TREAT_AS_HARD
1070
     0
1000
TREAT_AS_HARD
1070
     0
  0
DICTIONARY
  5
18
102
{ACAD_REACTORS
330
C
102
}
330
C
100
AcDbDictionary
1001
ACAD
1000
TREAT_AS_HARD
1070
     0
1000
TREAT_AS_HARD
1070
     0
1000
TREAT_AS_HARD
1070
     0
  0
XRECORD
  5
23B
102
{ACAD_REACTORS
330
18F
102
}
330
18F
100
AcDbXrecord
340
1E
  0
XRECORD
  5
23A
102
{ACAD_REACTORS
330
18D
102
}
330
18D
100
AcDbXrecord
340
1A
  0
MLINESTYLE
  5
17
102
{ACAD_REACTORS
330
16
102
}
330
16
100
AcDbMlineStyle
  2
STANDARD
 70
     0
  3

 62
   256
 51
90.0
 52
90.0
 71
     2
 49
0.5
 62
   256
  6
BYLAYER
 49
-0.5
 62
   256
  6
BYLAYER
  0
ENDSEC
  0
EOF
