  0
SECTION
  2
HEADER
  9
$ACADVER
  1
AC1024
  9
$ACADMAINTVER
 70
     6
  9
$DWGCODEPAGE
  3
ANSI_932
  9
$INSBASE
 10
0.0
 20
0.0
 30
0.0
  9
$EXTMIN
 10
1.000000000000000E+20
 20
1.000000000000000E+20
 30
1.000000000000000E+20
  9
$EXTMAX
 10
-1.000000000000000E+20
 20
-1.000000000000000E+20
 30
-1.000000000000000E+20
  9
$LIMMIN
 10
0.0
 20
0.0
  9
$LIMMAX
 10
12.0
 20
9.0
  9
$ORTHOMODE
 70
     0
  9
$REGENMODE
 70
     1
  9
$FILLMODE
 70
     1
  9
$QTEXTMODE
 70
     0
  9
$MIRRTEXT
 70
     1
  9
$LTSCALE
 40
1.0
  9
$ATTMODE
 70
     1
  9
$TEXTSIZE
 40
0.2
  9
$TRACEWID
 40
0.05
  9
$TEXTSTYLE
  7
Standard
  9
$CLAYER
  8
0
  9
$CELTYPE
  6
ByLayer
  9
$CECOLOR
 62
   256
  9
$CELTSCALE
 40
1.0
  9
$DISPSILH
 70
     0
  9
$DIMSCALE
 40
1.0
  9
$DIMASZ
 40
0.18
  9
$DIMEXO
 40
0.0625
  9
$DIMDLI
 40
0.38
  9
$DIMRND
 40
0.0
  9
$DIMDLE
 40
0.0
  9
$DIMEXE
 40
0.18
  9
$DIMTP
 40
0.0
  9
$DIMTM
 40
0.0
  9
$DIMTXT
 40
0.18
  9
$DIMCEN
 40
0.09
  9
$DIMTSZ
 40
0.0
  9
$DIMTOL
 70
     0
  9
$DIMLIM
 70
     0
  9
$DIMTIH
 70
     1
  9
$DIMTOH
 70
     1
  9
$DIMSE1
 70
     0
  9
$DIMSE2
 70
     0
  9
$DIMTAD
 70
     0
  9
$DIMZIN
 70
     0
  9
$DIMBLK
  1

  9
$DIMASO
 70
     1
  9
$DIMSHO
 70
     1
  9
$DIMPOST
  1

  9
$DIMAPOST
  1

  9
$DIMALT
 70
     0
  9
$DIMALTD
 70
     2
  9
$DIMALTF
 40
25.4
  9
$DIMLFAC
 40
1.0
  9
$DIMTOFL
 70
     0
  9
$DIMTVP
 40
0.0
  9
$DIMTIX
 70
     0
  9
$DIMSOXD
 70
     0
  9
$DIMSAH
 70
     0
  9
$DIMBLK1
  1

  9
$DIMBLK2
  1

  9
$DIMSTYLE
  2
Standard
  9
$DIMCLRD
 70
     0
  9
$DIMCLRE
 70
     0
  9
$DIMCLRT
 70
     0
  9
$DIMTFAC
 40
1.0
  9
$DIMGAP
 40
0.09
  9
$DIMJUST
 70
     0
  9
$DIMSD1
 70
     0
  9
$DIMSD2
 70
     0
  9
$DIMTOLJ
 70
     1
  9
$DIMTZIN
 70
     0
  9
$DIMALTZ
 70
     0
  9
$DIMALTTZ
 70
     0
  9
$DIMUPT
 70
     0
  9
$DIMDEC
 70
     4
  9
$DIMTDEC
 70
     4
  9
$DIMALTU
 70
     2
  9
$DIMALTTD
 70
     2
  9
$DIMTXSTY
  7
Standard
  9
$DIMAUNIT
 70
     0
  9
$DIMADEC
 70
     0
  9
$DIMALTRND
 40
0.0
  9
$DIMAZIN
 70
     0
  9
$DIMDSEP
 70
    46
  9
$DIMATFIT
 70
     3
  9
$DIMFRAC
 70
     0
  9
$DIMLDRBLK
  1

  9
$DIMLUNIT
 70
     2
  9
$DIMLWD
 70
    -2
  9
$DIMLWE
 70
    -2
  9
$DIMTMOVE
 70
     0
  9
$DIMFXL
 40
1.0
  9
$DIMFXLON
 70
     0
  9
$DIMJOGANG
 40
0.7853981633974483
  9
$DIMTFILL
 70
     0
  9
$DIMTFILLCLR
 70
     0
  9
$DIMARCSYM
 70
     0
  9
$DIMLTYPE
  6

  9
$DIMLTEX1
  6

  9
$DIMLTEX2
  6

  9
$DIMTXTDIRECTION
 70
     0
  9
$LUNITS
 70
     2
  9
$LUPREC
 70
     4
  9
$SKETCHINC
 40
0.1
  9
$FILLETRAD
 40
0.5
  9
$AUNITS
 70
     0
  9
$AUPREC
 70
     0
  9
$MENU
  1
.
  9
$ELEVATION
 40
0.0
  9
$PELEVATION
 40
0.0
  9
$THICKNESS
 40
0.0
  9
$LIMCHECK
 70
     0
  9
$CHAMFERA
 40
0.5
  9
$CHAMFERB
 40
0.5
  9
$CHAMFERC
 40
1.0
  9
$CHAMFERD
 40
0.0
  9
$SKPOLY
 70
     0
  9
$TDCREATE
 40
2457991.538179213
  9
$TDUCREATE
 40
2457991.163179213
  9
$TDUPDATE
 40
2457991.538181019
  9
$TDUUPDATE
 40
2457991.163181019
  9
$TDINDWG
 40
0.0000000116
  9
$TDUSRTIMER
 40
0.0000000116
  9
$USRTIMER
 70
     1
  9
$ANGBASE
 50
0.0
  9
$ANGDIR
 70
     0
  9
$PDMODE
 70
     0
  9
$PDSIZE
 40
0.0
  9
$PLINEWID
 40
0.0
  9
$SPLFRAME
 70
     0
  9
$SPLINETYPE
 70
     6
  9
$SPLINESEGS
 70
     8
  9
$HANDSEED
  5
75C
  9
$SURFTAB1
 70
     6
  9
$SURFTAB2
 70
     6
  9
$SURFTYPE
 70
     6
  9
$SURFU
 70
     6
  9
$SURFV
 70
     6
  9
$UCSBASE
  2

  9
$UCSNAME
  2

  9
$UCSORG
 10
0.0
 20
0.0
 30
0.0
  9
$UCSXDIR
 10
1.0
 20
0.0
 30
0.0
  9
$UCSYDIR
 10
0.0
 20
1.0
 30
0.0
  9
$UCSORTHOREF
  2

  9
$UCSORTHOVIEW
 70
     0
  9
$UCSORGTOP
 10
0.0
 20
0.0
 30
0.0
  9
$UCSORGBOTTOM
 10
0.0
 20
0.0
 30
0.0
  9
$UCSORGLEFT
 10
0.0
 20
0.0
 30
0.0
  9
$UCSORGRIGHT
 10
0.0
 20
0.0
 30
0.0
  9
$UCSORGFRONT
 10
0.0
 20
0.0
 30
0.0
  9
$UCSORGBACK
 10
0.0
 20
0.0
 30
0.0
  9
$PUCSBASE
  2

  9
$PUCSNAME
  2

  9
$PUCSORG
 10
0.0
 20
0.0
 30
0.0
  9
$PUCSXDIR
 10
1.0
 20
0.0
 30
0.0
  9
$PUCSYDIR
 10
0.0
 20
1.0
 30
0.0
  9
$PUCSORTHOREF
  2

  9
$PUCSORTHOVIEW
 70
     0
  9
$PUCSORGTOP
 10
0.0
 20
0.0
 30
0.0
  9
$PUCSORGBOTTOM
 10
0.0
 20
0.0
 30
0.0
  9
$PUCSORGLEFT
 10
0.0
 20
0.0
 30
0.0
  9
$PUCSORGRIGHT
 10
0.0
 20
0.0
 30
0.0
  9
$PUCSORGFRONT
 10
0.0
 20
0.0
 30
0.0
  9
$PUCSORGBACK
 10
0.0
 20
0.0
 30
0.0
  9
$USERI1
 70
     0
  9
$USERI2
 70
     0
  9
$USERI3
 70
     0
  9
$USERI4
 70
     0
  9
$USERI5
 70
     0
  9
$USERR1
 40
0.0
  9
$USERR2
 40
0.0
  9
$USERR3
 40
0.0
  9
$USERR4
 40
0.0
  9
$USERR5
 40
0.0
  9
$WORLDVIEW
 70
     1
  9
$SHADEDGE
 70
     3
  9
$SHADEDIF
 70
    70
  9
$TILEMODE
 70
     1
  9
$MAXACTVP
 70
    64
  9
$PINSBASE
 10
0.0
 20
0.0
 30
0.0
  9
$PLIMCHECK
 70
     0
  9
$PEXTMIN
 10
1.000000000000000E+20
 20
1.000000000000000E+20
 30
1.000000000000000E+20
  9
$PEXTMAX
 10
-1.000000000000000E+20
 20
-1.000000000000000E+20
 30
-1.000000000000000E+20
  9
$PLIMMIN
 10
0.0
 20
0.0
  9
$PLIMMAX
 10
12.0
 20
9.0
  9
$UNITMODE
 70
     0
  9
$VISRETAIN
 70
     1
  9
$PLINEGEN
 70
     0
  9
$PSLTSCALE
 70
     1
  9
$TREEDEPTH
 70
  3020
  9
$CMLSTYLE
  2
Standard
  9
$CMLJUST
 70
     0
  9
$CMLSCALE
 40
1.0
  9
$PROXYGRAPHICS
 70
     1
  9
$MEASUREMENT
 70
     0
  9
$CELWEIGHT
370
    -1
  9
$ENDCAPS
280
     0
  9
$JOINSTYLE
280
     0
  9
$LWDISPLAY
290
     1
  9
$INSUNITS
 70
     1
  9
$HYPERLINKBASE
  1

  9
$STYLESHEET
  1

  9
$XEDIT
290
     1
  9
$CEPSNTYPE
380
     0
  9
$PSTYLEMODE
290
     1
  9
$FINGERPRINTGUID
  2
{215193DB-5B67-4944-ABA2-318DDD540890}
  9
$VERSIONGUID
  2
{FAEB1C32-E019-11D5-929B-00C0DF256EC4}
  9
$EXTNAMES
290
     1
  9
$PSVPSCALE
 40
0.0
  9
$OLESTARTUP
290
     0
  9
$SORTENTS
280
   127
  9
$INDEXCTL
280
     0
  9
$HIDETEXT
280
     1
  9
$XCLIPFRAME
280
     2
  9
$HALOGAP
280
     0
  9
$OBSCOLOR
 70
   257
  9
$OBSLTYPE
280
     0
  9
$INTERSECTIONDISPLAY
280
     0
  9
$INTERSECTIONCOLOR
 70
   257
  9
$DIMASSOC
280
     2
  9
$PROJECTNAME
  1

  9
$CAMERADISPLAY
290
     0
  9
$LENSLENGTH
 40
50.0
  9
$CAMERAHEIGHT
 40
0.0
  9
$STEPSPERSEC
 40
2.0
  9
$STEPSIZE
 40
6.0
  9
$3DDWFPREC
 40
2.0
  9
$PSOLWIDTH
 40
0.25
  9
$PSOLHEIGHT
 40
4.0
  9
$LOFTANG1
 40
1.570796326794897
  9
$LOFTANG2
 40
1.570796326794897
  9
$LOFTMAG1
 40
0.0
  9
$LOFTMAG2
 40
0.0
  9
$LOFTPARAM
 70
     7
  9
$LOFTNORMALS
280
     1
  9
$LATITUDE
 40
37.795
  9
$LONGITUDE
 40
-122.394
  9
$NORTHDIRECTION
 40
0.0
  9
$TIMEZONE
 70
 -8000
  9
$LIGHTGLYPHDISPLAY
280
     1
  9
$TILEMODELIGHTSYNCH
280
     1
  9
$CMATERIAL
347
3C
  9
$SOLIDHIST
280
     1
  9
$SHOWHIST
280
     1
  9
$DWFFRAME
280
     2
  9
$DGNFRAME
280
     2
  9
$REALWORLDSCALE
290
     1
  9
$INTERFERECOLOR
 62
   256
  9
$CSHADOW
280
     0
  9
$SHADOWPLANELOCATION
 40
0.0
  0
ENDSEC
  0
SECTION
  2
CLASSES
  0
CLASS
  1
ACDBDICTIONARYWDFLT
  2
AcDbDictionaryWithDefault
  3
ObjectDBX Classes
 90
        0
 91
        4
280
     0
281
     0
  0
CLASS
  1
VISUALSTYLE
  2
AcDbVisualStyle
  3
ObjectDBX Classes
 90
     4095
 91
        4
280
     0
281
     0
  0
CLASS
  1
MATERIAL
  2
AcDbMaterial
  3
ObjectDBX Classes
 90
     1153
 91
        4
280
     0
281
     0
  0
CLASS
  1
SUN
  2
AcDbSun
  3
SCENEOE
 90
     1024
 91
        4
280
     0
281
     0
  0
ENDSEC
  0
SECTION
  2
TABLES
  0
TABLE
  2
VPORT
  5
8
330
0
100
AcDbSymbolTable
 70
     1
  0
VPORT
  5
29
330
8
100
AcDbSymbolTableRecord
100
AcDbViewportTableRecord
  2
*Active
 70
     0
 10
0.0
 20
0.0
 11
1.0
 21
1.0
 12
0.0
 22
0.0
 13
0.0
 23
0.0
 14
0.5
 24
0.5
 15
0.5
 25
0.5
 16
0.0
 26
0.0
 36
1.0
 17
148.5000416295416
 27
209.9997916141668
 37
0.0
 40
419.9995832283335
 41
0.70714375708706
 42
50.0
 43
0.0
 44
0.0
 50
0.0
 51
0.0
 71
     0
 72
   100
 73
     1
 74
     3
 75
     0
 76
     0
 77
     0
 78
     0
281
     0
 65
     1
110
0.0
120
0.0
130
0.0
111
1.0
121
0.0
131
0.0
112
0.0
122
1.0
132
0.0
 79
     0
146
0.0
 60
     3
 61
     5
292
     1
282
     1
141
0.0
142
0.0
 63
   250
361
3F
  0
ENDTAB
  0
TABLE
  2
LTYPE
  5
5
330
0
100
AcDbSymbolTable
 70
    28
  0
LTYPE
  5
14
330
5
100
AcDbSymbolTableRecord
100
AcDbLinetypeTableRecord
  2
ByBlock
 70
     0
  3

 72
    65
 73
     0
 40
0.0
  0
LTYPE
  5
15
330
5
100
AcDbSymbolTableRecord
100
AcDbLinetypeTableRecord
  2
ByLayer
 70
     0
  3

 72
    65
 73
     0
 40
0.0
  0
LTYPE
  5
16
330
5
100
AcDbSymbolTableRecord
100
AcDbLinetypeTableRecord
  2
Continuous
 70
     0
  3
Solid line
 72
    65
 73
     0
 40
0.0
  0
LTYPE
  5
65D
330
5
100
AcDbSymbolTableRecord
100
AcDbLinetypeTableRecord
  2
AI-Linetype-1
 70
     0
  3
Adobe Illustrator Linetype No. 1
 72
    65
 73
     4
 40
449.9999979377658
 49
281.2499946738824
 74
     0
 49
-56.25000108796116
 74
     0
 49
56.25000108796116
 74
     0
 49
-56.25000108796116
 74
     0
  0
LTYPE
  5
664
330
5
100
AcDbSymbolTableRecord
100
AcDbLinetypeTableRecord
  2
AI-Linetype-2
 70
     0
  3
Adobe Illustrator Linetype No. 2
 72
    65
 73
     2
 40
168.7500032638835
 49
112.5000021759223
 74
     0
 49
-56.25000108796116
 74
     0
  0
LTYPE
  5
66A
330
5
100
AcDbSymbolTableRecord
100
AcDbLinetypeTableRecord
  2
AI-Linetype-3
 70
     0
  3
Adobe Illustrator Linetype No. 3
 72
    65
 73
     2
 40
168.7500032638835
 49
112.5000021759223
 74
     0
 49
-56.25000108796116
 74
     0
  0
LTYPE
  5
672
330
5
100
AcDbSymbolTableRecord
100
AcDbLinetypeTableRecord
  2
AI-Linetype-4
 70
     0
  3
Adobe Illustrator Linetype No. 4
 72
    65
 73
     4
 40
449.9999979377658
 49
281.2499946738824
 74
     0
 49
-56.25000108796116
 74
     0
 49
56.25000108796116
 74
     0
 49
-56.25000108796116
 74
     0
  0
LTYPE
  5
67B
330
5
100
AcDbSymbolTableRecord
100
AcDbLinetypeTableRecord
  2
AI-Linetype-5
 70
     0
  3
Adobe Illustrator Linetype No. 5
 72
    65
 73
     2
 40
168.7500032638835
 49
112.5000021759223
 74
     0
 49
-56.25000108796116
 74
     0
  0
LTYPE
  5
682
330
5
100
AcDbSymbolTableRecord
100
AcDbLinetypeTableRecord
  2
AI-Linetype-6
 70
     0
  3
Adobe Illustrator Linetype No. 6
 72
    65
 73
     2
 40
168.7500032638835
 49
112.5000021759223
 74
     0
 49
-56.25000108796116
 74
     0
  0
LTYPE
  5
692
330
5
100
AcDbSymbolTableRecord
100
AcDbLinetypeTableRecord
  2
AI-Linetype-7
 70
     0
  3
Adobe Illustrator Linetype No. 7
 72
    65
 73
     4
 40
449.9999979377658
 49
281.2499946738824
 74
     0
 49
-56.25000108796116
 74
     0
 49
56.25000108796116
 74
     0
 49
-56.25000108796116
 74
     0
  0
LTYPE
  5
6A1
330
5
100
AcDbSymbolTableRecord
100
AcDbLinetypeTableRecord
  2
AI-Linetype-8
 70
     0
  3
Adobe Illustrator Linetype No. 8
 72
    65
 73
     2
 40
168.7500032638835
 49
112.5000021759223
 74
     0
 49
-56.25000108796116
 74
     0
  0
LTYPE
  5
6A9
330
5
100
AcDbSymbolTableRecord
100
AcDbLinetypeTableRecord
  2
AI-Linetype-9
 70
     0
  3
Adobe Illustrator Linetype No. 9
 72
    65
 73
     4
 40
449.9999979377658
 49
281.2499946738824
 74
     0
 49
-56.25000108796116
 74
     0
 49
56.25000108796116
 74
     0
 49
-56.25000108796116
 74
     0
  0
LTYPE
  5
6B2
330
5
100
AcDbSymbolTableRecord
100
AcDbLinetypeTableRecord
  2
AI-Linetype-10
 70
     0
  3
Adobe Illustrator Linetype No. 10
 72
    65
 73
     4
 40
449.9999979377658
 49
281.2499946738824
 74
     0
 49
-56.25000108796116
 74
     0
 49
56.25000108796116
 74
     0
 49
-56.25000108796116
 74
     0
  0
LTYPE
  5
6BB
330
5
100
AcDbSymbolTableRecord
100
AcDbLinetypeTableRecord
  2
AI-Linetype-11
 70
     0
  3
Adobe Illustrator Linetype No. 11
 72
    65
 73
     4
 40
449.9999979377658
 49
281.2499946738824
 74
     0
 49
-56.25000108796116
 74
     0
 49
56.25000108796116
 74
     0
 49
-56.25000108796116
 74
     0
  0
LTYPE
  5
6C4
330
5
100
AcDbSymbolTableRecord
100
AcDbLinetypeTableRecord
  2
AI-Linetype-12
 70
     0
  3
Adobe Illustrator Linetype No. 12
 72
    65
 73
     4
 40
449.9999979377658
 49
281.2499946738824
 74
     0
 49
-56.25000108796116
 74
     0
 49
56.25000108796116
 74
     0
 49
-56.25000108796116
 74
     0
  0
LTYPE
  5
6CD
330
5
100
AcDbSymbolTableRecord
100
AcDbLinetypeTableRecord
  2
AI-Linetype-13
 70
     0
  3
Adobe Illustrator Linetype No. 13
 72
    65
 73
     2
 40
168.7500032638835
 49
112.5000021759223
 74
     0
 49
-56.25000108796116
 74
     0
  0
LTYPE
  5
6D6
330
5
100
AcDbSymbolTableRecord
100
AcDbLinetypeTableRecord
  2
AI-Linetype-14
 70
     0
  3
Adobe Illustrator Linetype No. 14
 72
    65
 73
     2
 40
168.7500032638835
 49
112.5000021759223
 74
     0
 49
-56.25000108796116
 74
     0
  0
LTYPE
  5
6DF
330
5
100
AcDbSymbolTableRecord
100
AcDbLinetypeTableRecord
  2
AI-Linetype-15
 70
     0
  3
Adobe Illustrator Linetype No. 15
 72
    65
 73
     2
 40
168.7500032638835
 49
112.5000021759223
 74
     0
 49
-56.25000108796116
 74
     0
  0
LTYPE
  5
6E8
330
5
100
AcDbSymbolTableRecord
100
AcDbLinetypeTableRecord
  2
AI-Linetype-16
 70
     0
  3
Adobe Illustrator Linetype No. 16
 72
    65
 73
     4
 40
449.9999979377658
 49
281.2499946738824
 74
     0
 49
-56.25000108796116
 74
     0
 49
56.25000108796116
 74
     0
 49
-56.25000108796116
 74
     0
  0
LTYPE
  5
6EF
330
5
100
AcDbSymbolTableRecord
100
AcDbLinetypeTableRecord
  2
AI-Linetype-17
 70
     0
  3
Adobe Illustrator Linetype No. 17
 72
    65
 73
     2
 40
168.7500032638835
 49
112.5000021759223
 74
     0
 49
-56.25000108796116
 74
     0
  0
LTYPE
  5
6FF
330
5
100
AcDbSymbolTableRecord
100
AcDbLinetypeTableRecord
  2
AI-Linetype-18
 70
     0
  3
Adobe Illustrator Linetype No. 18
 72
    65
 73
     4
 40
449.9999979377658
 49
281.2499946738824
 74
     0
 49
-56.25000108796116
 74
     0
 49
56.25000108796116
 74
     0
 49
-56.25000108796116
 74
     0
  0
LTYPE
  5
710
330
5
100
AcDbSymbolTableRecord
100
AcDbLinetypeTableRecord
  2
AI-Linetype-19
 70
     0
  3
Adobe Illustrator Linetype No. 19
 72
    65
 73
     4
 40
449.9999979377658
 49
281.2499946738824
 74
     0
 49
-56.25000108796116
 74
     0
 49
56.25000108796116
 74
     0
 49
-56.25000108796116
 74
     0
  0
LTYPE
  5
719
330
5
100
AcDbSymbolTableRecord
100
AcDbLinetypeTableRecord
  2
AI-Linetype-20
 70
     0
  3
Adobe Illustrator Linetype No. 20
 72
    65
 73
     4
 40
449.9999979377658
 49
281.2499946738824
 74
     0
 49
-56.25000108796116
 74
     0
 49
56.25000108796116
 74
     0
 49
-56.25000108796116
 74
     0
  0
LTYPE
  5
722
330
5
100
AcDbSymbolTableRecord
100
AcDbLinetypeTableRecord
  2
AI-Linetype-21
 70
     0
  3
Adobe Illustrator Linetype No. 21
 72
    65
 73
     2
 40
56.25352886565921
 49
0.0035277776980439
 74
     0
 49
-56.25000108796116
 74
     0
  0
LTYPE
  5
72B
330
5
100
AcDbSymbolTableRecord
100
AcDbLinetypeTableRecord
  2
AI-Linetype-22
 70
     0
  3
Adobe Illustrator Linetype No. 22
 72
    65
 73
     2
 40
56.25352886565921
 49
0.0035277776980439
 74
     0
 49
-56.25000108796116
 74
     0
  0
LTYPE
  5
734
330
5
100
AcDbSymbolTableRecord
100
AcDbLinetypeTableRecord
  2
AI-Linetype-23
 70
     0
  3
Adobe Illustrator Linetype No. 23
 72
    65
 73
     2
 40
56.25352886565921
 49
0.0035277776980439
 74
     0
 49
-56.25000108796116
 74
     0
  0
LTYPE
  5
73D
330
5
100
AcDbSymbolTableRecord
100
AcDbLinetypeTableRecord
  2
AI-Linetype-24
 70
     0
  3
Adobe Illustrator Linetype No. 24
 72
    65
 73
     2
 40
56.25352886565921
 49
0.0035277776980439
 74
     0
 49
-56.25000108796116
 74
     0
  0
LTYPE
  5
746
330
5
100
AcDbSymbolTableRecord
100
AcDbLinetypeTableRecord
  2
AI-Linetype-25
 70
     0
  3
Adobe Illustrator Linetype No. 25
 72
    65
 73
     2
 40
56.25352886565921
 49
0.0035277776980439
 74
     0
 49
-56.25000108796116
 74
     0
  0
LTYPE
  5
74F
330
5
100
AcDbSymbolTableRecord
100
AcDbLinetypeTableRecord
  2
AI-Linetype-26
 70
     0
  3
Adobe Illustrator Linetype No. 26
 72
    65
 73
     2
 40
56.25352886565921
 49
0.0035277776980439
 74
     0
 49
-56.25000108796116
 74
     0
  0
LTYPE
  5
758
330
5
100
AcDbSymbolTableRecord
100
AcDbLinetypeTableRecord
  2
AI-Linetype-27
 70
     0
  3
Adobe Illustrator Linetype No. 27
 72
    65
 73
     2
 40
56.25352886565921
 49
0.0035277776980439
 74
     0
 49
-56.25000108796116
 74
     0
  0
ENDTAB
  0
TABLE
  2
LAYER
  5
2
330
0
100
AcDbSymbolTable
 70
     2
  0
LAYER
  5
10
330
2
100
AcDbSymbolTableRecord
100
AcDbLayerTableRecord
  2
0
 70
     0
 62
     7
  6
Continuous
370
    -3
390
F
347
3E
  0
LAYER
  5
40
330
2
100
AcDbSymbolTableRecord
100
AcDbLayerTableRecord
  2
CSLAYER1
 70
     0
 62
     7
  6
Continuous
370
    -3
390
F
347
3E
  0
ENDTAB
  0
TABLE
  2
STYLE
  5
3
330
0
100
AcDbSymbolTable
 70
     1
  0
STYLE
  5
11
330
3
100
AcDbSymbolTableRecord
100
AcDbTextStyleTableRecord
  2
Standard
 70
     0
 40
0.0
 41
1.0
 50
0.0
 71
     0
 42
0.2
  3
txt
  4

  0
ENDTAB
  0
TABLE
  2
VIEW
  5
6
330
0
100
AcDbSymbolTable
 70
     0
  0
ENDTAB
  0
TABLE
  2
UCS
  5
7
330
0
100
AcDbSymbolTable
 70
     0
  0
ENDTAB
  0
TABLE
  2
APPID
  5
9
330
0
100
AcDbSymbolTable
 70
     1
  0
APPID
  5
12
330
9
100
AcDbSymbolTableRecord
100
AcDbRegAppTableRecord
  2
ACAD
 70
     0
  0
ENDTAB
  0
TABLE
  2
DIMSTYLE
  5
A
330
0
100
AcDbSymbolTable
 70
     1
100
AcDbDimStyleTable
  0
DIMSTYLE
105
27
330
A
100
AcDbSymbolTableRecord
100
AcDbDimStyleTableRecord
  2
Standard
 70
     0
178
     0
340
11
  0
ENDTAB
  0
TABLE
  2
BLOCK_RECORD
  5
1
330
0
100
AcDbSymbolTable
 70
   245
  0
BLOCK_RECORD
  5
1F
330
1
100
AcDbSymbolTableRecord
100
AcDbBlockTableRecord
  2
*Model_Space
340
22
 70
     0
280
     1
281
     0
  0
BLOCK_RECORD
  5
1B
330
1
100
AcDbSymbolTableRecord
100
AcDbBlockTableRecord
  2
*Paper_Space
340
1E
 70
     0
280
     1
281
     0
  0
BLOCK_RECORD
  5
23
330
1
100
AcDbSymbolTableRecord
100
AcDbBlockTableRecord
  2
*Paper_Space0
340
26
 70
     0
280
     1
281
     0
  0
BLOCK_RECORD
  5
41
330
1
100
AcDbSymbolTableRecord
100
AcDbBlockTableRecord
  2
block 2
340
0
102
{BLKREFS
331
42
102
}
 70
     0
280
     1
281
     0
  0
BLOCK_RECORD
  5
49
330
1
100
AcDbSymbolTableRecord
100
AcDbBlockTableRecord
  2
block 3
340
0
102
{BLKREFS
331
4A
102
}
 70
     0
280
     1
281
     0
  0
BLOCK_RECORD
  5
51
330
1
100
AcDbSymbolTableRecord
100
AcDbBlockTableRecord
  2
block 4
340
0
102
{BLKREFS
331
52
102
}
 70
     0
280
     1
281
     0
  0
BLOCK_RECORD
  5
59
330
1
100
AcDbSymbolTableRecord
100
AcDbBlockTableRecord
  2
block 5
340
0
102
{BLKREFS
331
5A
102
}
 70
     0
280
     1
281
     0
  0
BLOCK_RECORD
  5
61
330
1
100
AcDbSymbolTableRecord
100
AcDbBlockTableRecord
  2
block 6
340
0
102
{BLKREFS
331
62
102
}
 70
     0
280
     1
281
     0
  0
BLOCK_RECORD
  5
66
330
1
100
AcDbSymbolTableRecord
100
AcDbBlockTableRecord
  2
block 7
340
0
102
{BLKREFS
331
67
102
}
 70
     0
280
     1
281
     0
  0
BLOCK_RECORD
  5
6B
330
1
100
AcDbSymbolTableRecord
100
AcDbBlockTableRecord
  2
block 8
340
0
102
{BLKREFS
331
6C
102
}
 70
     0
280
     1
281
     0
  0
BLOCK_RECORD
  5
73
330
1
100
AcDbSymbolTableRecord
100
AcDbBlockTableRecord
  2
block 9
340
0
102
{BLKREFS
331
74
102
}
 70
     0
280
     1
281
     0
  0
BLOCK_RECORD
  5
7B
330
1
100
AcDbSymbolTableRecord
100
AcDbBlockTableRecord
  2
block 10
340
0
102
{BLKREFS
331
7C
102
}
 70
     0
280
     1
281
     0
  0
BLOCK_RECORD
  5
83
330
1
100
AcDbSymbolTableRecord
100
AcDbBlockTableRecord
  2
block 11
340
0
102
{BLKREFS
331
84
102
}
 70
     0
280
     1
281
     0
  0
BLOCK_RECORD
  5
88
330
1
100
AcDbSymbolTableRecord
100
AcDbBlockTableRecord
  2
block 12
340
0
102
{BLKREFS
331
89
102
}
 70
     0
280
     1
281
     0
  0
BLOCK_RECORD
  5
90
330
1
100
AcDbSymbolTableRecord
100
AcDbBlockTableRecord
  2
block 13
340
0
102
{BLKREFS
331
91
102
}
 70
     0
280
     1
281
     0
  0
BLOCK_RECORD
  5
98
330
1
100
AcDbSymbolTableRecord
100
AcDbBlockTableRecord
  2
block 14
340
0
102
{BLKREFS
331
99
102
}
 70
     0
280
     1
281
     0
  0
BLOCK_RECORD
  5
A0
330
1
100
AcDbSymbolTableRecord
100
AcDbBlockTableRecord
  2
block 15
340
0
102
{BLKREFS
331
A1
102
}
 70
     0
280
     1
281
     0
  0
BLOCK_RECORD
  5
A8
330
1
100
AcDbSymbolTableRecord
100
AcDbBlockTableRecord
  2
block 16
340
0
102
{BLKREFS
331
A9
102
}
 70
     0
280
     1
281
     0
  0
BLOCK_RECORD
  5
B0
330
1
100
AcDbSymbolTableRecord
100
AcDbBlockTableRecord
  2
block 17
340
0
102
{BLKREFS
331
B1
102
}
 70
     0
280
     1
281
     0
  0
BLOCK_RECORD
  5
B8
330
1
100
AcDbSymbolTableRecord
100
AcDbBlockTableRecord
  2
block 18
340
0
102
{BLKREFS
331
B9
102
}
 70
     0
280
     1
281
     0
  0
BLOCK_RECORD
  5
C0
330
1
100
AcDbSymbolTableRecord
100
AcDbBlockTableRecord
  2
block 19
340
0
102
{BLKREFS
331
C1
102
}
 70
     0
280
     1
281
     0
  0
BLOCK_RECORD
  5
C8
330
1
100
AcDbSymbolTableRecord
100
AcDbBlockTableRecord
  2
block 20
340
0
102
{BLKREFS
331
C9
102
}
 70
     0
280
     1
281
     0
  0
BLOCK_RECORD
  5
CD
330
1
100
AcDbSymbolTableRecord
100
AcDbBlockTableRecord
  2
block 21
340
0
102
{BLKREFS
331
CE
102
}
 70
     0
280
     1
281
     0
  0
BLOCK_RECORD
  5
D5
330
1
100
AcDbSymbolTableRecord
100
AcDbBlockTableRecord
  2
block 22
340
0
102
{BLKREFS
331
D6
102
}
 70
     0
280
     1
281
     0
  0
BLOCK_RECORD
  5
DD
330
1
100
AcDbSymbolTableRecord
100
AcDbBlockTableRecord
  2
block 23
340
0
102
{BLKREFS
331
DE
102
}
 70
     0
280
     1
281
     0
  0
BLOCK_RECORD
  5
E5
330
1
100
AcDbSymbolTableRecord
100
AcDbBlockTableRecord
  2
block 24
340
0
102
{BLKREFS
331
E6
102
}
 70
     0
280
     1
281
     0
  0
BLOCK_RECORD
  5
ED
330
1
100
AcDbSymbolTableRecord
100
AcDbBlockTableRecord
  2
block 25
340
0
102
{BLKREFS
331
EE
102
}
 70
     0
280
     1
281
     0
  0
BLOCK_RECORD
  5
F5
330
1
100
AcDbSymbolTableRecord
100
AcDbBlockTableRecord
  2
block 26
340
0
102
{BLKREFS
331
F6
102
}
 70
     0
280
     1
281
     0
  0
BLOCK_RECORD
  5
FD
330
1
100
AcDbSymbolTableRecord
100
AcDbBlockTableRecord
  2
block 27
340
0
102
{BLKREFS
331
FE
102
}
 70
     0
280
     1
281
     0
  0
BLOCK_RECORD
  5
105
330
1
100
AcDbSymbolTableRecord
100
AcDbBlockTableRecord
  2
block 28
340
0
102
{BLKREFS
331
106
102
}
 70
     0
280
     1
281
     0
  0
BLOCK_RECORD
  5
10D
330
1
100
AcDbSymbolTableRecord
100
AcDbBlockTableRecord
  2
block 29
340
0
102
{BLKREFS
331
10E
102
}
 70
     0
280
     1
281
     0
  0
BLOCK_RECORD
  5
115
330
1
100
AcDbSymbolTableRecord
100
AcDbBlockTableRecord
  2
block 30
340
0
102
{BLKREFS
331
116
102
}
 70
     0
280
     1
281
     0
  0
BLOCK_RECORD
  5
11D
330
1
100
AcDbSymbolTableRecord
100
AcDbBlockTableRecord
  2
block 31
340
0
102
{BLKREFS
331
11E
102
}
 70
     0
280
     1
281
     0
  0
BLOCK_RECORD
  5
125
330
1
100
AcDbSymbolTableRecord
100
AcDbBlockTableRecord
  2
block 32
340
0
102
{BLKREFS
331
126
102
}
 70
     0
280
     1
281
     0
  0
BLOCK_RECORD
  5
12A
330
1
100
AcDbSymbolTableRecord
100
AcDbBlockTableRecord
  2
block 33
340
0
102
{BLKREFS
331
12B
102
}
 70
     0
280
     1
281
     0
  0
BLOCK_RECORD
  5
132
330
1
100
AcDbSymbolTableRecord
100
AcDbBlockTableRecord
  2
block 34
340
0
102
{BLKREFS
331
133
102
}
 70
     0
280
     1
281
     0
  0
BLOCK_RECORD
  5
137
330
1
100
AcDbSymbolTableRecord
100
AcDbBlockTableRecord
  2
block 35
340
0
102
{BLKREFS
331
138
102
}
 70
     0
280
     1
281
     0
  0
BLOCK_RECORD
  5
13C
330
1
100
AcDbSymbolTableRecord
100
AcDbBlockTableRecord
  2
block 36
340
0
102
{BLKREFS
331
13D
102
}
 70
     0
280
     1
281
     0
  0
BLOCK_RECORD
  5
144
330
1
100
AcDbSymbolTableRecord
100
AcDbBlockTableRecord
  2
block 37
340
0
102
{BLKREFS
331
145
102
}
 70
     0
280
     1
281
     0
  0
BLOCK_RECORD
  5
149
330
1
100
AcDbSymbolTableRecord
100
AcDbBlockTableRecord
  2
block 38
340
0
102
{BLKREFS
331
14A
102
}
 70
     0
280
     1
281
     0
  0
BLOCK_RECORD
  5
14E
330
1
100
AcDbSymbolTableRecord
100
AcDbBlockTableRecord
  2
block 39
340
0
102
{BLKREFS
331
14F
102
}
 70
     0
280
     1
281
     0
  0
BLOCK_RECORD
  5
156
330
1
100
AcDbSymbolTableRecord
100
AcDbBlockTableRecord
  2
block 40
340
0
102
{BLKREFS
331
157
102
}
 70
     0
280
     1
281
     0
  0
BLOCK_RECORD
  5
15E
330
1
100
AcDbSymbolTableRecord
100
AcDbBlockTableRecord
  2
block 41
340
0
102
{BLKREFS
331
15F
102
}
 70
     0
280
     1
281
     0
  0
BLOCK_RECORD
  5
166
330
1
100
AcDbSymbolTableRecord
100
AcDbBlockTableRecord
  2
block 42
340
0
102
{BLKREFS
331
167
102
}
 70
     0
280
     1
281
     0
  0
BLOCK_RECORD
  5
16E
330
1
100
AcDbSymbolTableRecord
100
AcDbBlockTableRecord
  2
block 43
340
0
102
{BLKREFS
331
16F
102
}
 70
     0
280
     1
281
     0
  0
BLOCK_RECORD
  5
176
330
1
100
AcDbSymbolTableRecord
100
AcDbBlockTableRecord
  2
block 44
340
0
102
{BLKREFS
331
177
102
}
 70
     0
280
     1
281
     0
  0
BLOCK_RECORD
  5
17E
330
1
100
AcDbSymbolTableRecord
100
AcDbBlockTableRecord
  2
block 45
340
0
102
{BLKREFS
331
17F
102
}
 70
     0
280
     1
281
     0
  0
BLOCK_RECORD
  5
186
330
1
100
AcDbSymbolTableRecord
100
AcDbBlockTableRecord
  2
block 46
340
0
102
{BLKREFS
331
187
102
}
 70
     0
280
     1
281
     0
  0
BLOCK_RECORD
  5
18B
330
1
100
AcDbSymbolTableRecord
100
AcDbBlockTableRecord
  2
block 47
340
0
102
{BLKREFS
331
18C
102
}
 70
     0
280
     1
281
     0
  0
BLOCK_RECORD
  5
193
330
1
100
AcDbSymbolTableRecord
100
AcDbBlockTableRecord
  2
block 48
340
0
102
{BLKREFS
331
194
102
}
 70
     0
280
     1
281
     0
  0
BLOCK_RECORD
  5
19B
330
1
100
AcDbSymbolTableRecord
100
AcDbBlockTableRecord
  2
block 49
340
0
102
{BLKREFS
331
19C
102
}
 70
     0
280
     1
281
     0
  0
BLOCK_RECORD
  5
1A3
330
1
100
AcDbSymbolTableRecord
100
AcDbBlockTableRecord
  2
block 50
340
0
102
{BLKREFS
331
1A4
102
}
 70
     0
280
     1
281
     0
  0
BLOCK_RECORD
  5
1AB
330
1
100
AcDbSymbolTableRecord
100
AcDbBlockTableRecord
  2
block 51
340
0
102
{BLKREFS
331
1AC
102
}
 70
     0
280
     1
281
     0
  0
BLOCK_RECORD
  5
1B3
330
1
100
AcDbSymbolTableRecord
100
AcDbBlockTableRecord
  2
block 52
340
0
102
{BLKREFS
331
1B4
102
}
 70
     0
280
     1
281
     0
  0
BLOCK_RECORD
  5
1BB
330
1
100
AcDbSymbolTableRecord
100
AcDbBlockTableRecord
  2
block 53
340
0
102
{BLKREFS
331
1BC
102
}
 70
     0
280
     1
281
     0
  0
BLOCK_RECORD
  5
1C3
330
1
100
AcDbSymbolTableRecord
100
AcDbBlockTableRecord
  2
block 54
340
0
102
{BLKREFS
331
1C4
102
}
 70
     0
280
     1
281
     0
  0
BLOCK_RECORD
  5
1C8
330
1
100
AcDbSymbolTableRecord
100
AcDbBlockTableRecord
  2
block 55
340
0
102
{BLKREFS
331
1C9
102
}
 70
     0
280
     1
281
     0
  0
BLOCK_RECORD
  5
1D0
330
1
100
AcDbSymbolTableRecord
100
AcDbBlockTableRecord
  2
block 56
340
0
102
{BLKREFS
331
1D1
102
}
 70
     0
280
     1
281
     0
  0
BLOCK_RECORD
  5
1D8
330
1
100
AcDbSymbolTableRecord
100
AcDbBlockTableRecord
  2
block 57
340
0
102
{BLKREFS
331
1D9
102
}
 70
     0
280
     1
281
     0
  0
BLOCK_RECORD
  5
1E0
330
1
100
AcDbSymbolTableRecord
100
AcDbBlockTableRecord
  2
block 58
340
0
102
{BLKREFS
331
1E1
102
}
 70
     0
280
     1
281
     0
  0
BLOCK_RECORD
  5
1E8
330
1
100
AcDbSymbolTableRecord
100
AcDbBlockTableRecord
  2
block 59
340
0
102
{BLKREFS
331
1E9
102
}
 70
     0
280
     1
281
     0
  0
BLOCK_RECORD
  5
1F0
330
1
100
AcDbSymbolTableRecord
100
AcDbBlockTableRecord
  2
block 60
340
0
102
{BLKREFS
331
1F1
102
}
 70
     0
280
     1
281
     0
  0
BLOCK_RECORD
  5
1F8
330
1
100
AcDbSymbolTableRecord
100
AcDbBlockTableRecord
  2
block 61
340
0
102
{BLKREFS
331
1F9
102
}
 70
     0
280
     1
281
     0
  0
BLOCK_RECORD
  5
200
330
1
100
AcDbSymbolTableRecord
100
AcDbBlockTableRecord
  2
block 62
340
0
102
{BLKREFS
331
201
102
}
 70
     0
280
     1
281
     0
  0
BLOCK_RECORD
  5
205
330
1
100
AcDbSymbolTableRecord
100
AcDbBlockTableRecord
  2
block 63
340
0
102
{BLKREFS
331
206
102
}
 70
     0
280
     1
281
     0
  0
BLOCK_RECORD
  5
20D
330
1
100
AcDbSymbolTableRecord
100
AcDbBlockTableRecord
  2
block 64
340
0
102
{BLKREFS
331
20E
102
}
 70
     0
280
     1
281
     0
  0
BLOCK_RECORD
  5
215
330
1
100
AcDbSymbolTableRecord
100
AcDbBlockTableRecord
  2
block 65
340
0
102
{BLKREFS
331
216
102
}
 70
     0
280
     1
281
     0
  0
BLOCK_RECORD
  5
21D
330
1
100
AcDbSymbolTableRecord
100
AcDbBlockTableRecord
  2
block 66
340
0
102
{BLKREFS
331
21E
102
}
 70
     0
280
     1
281
     0
  0
BLOCK_RECORD
  5
225
330
1
100
AcDbSymbolTableRecord
100
AcDbBlockTableRecord
  2
block 67
340
0
102
{BLKREFS
331
226
102
}
 70
     0
280
     1
281
     0
  0
BLOCK_RECORD
  5
22D
330
1
100
AcDbSymbolTableRecord
100
AcDbBlockTableRecord
  2
block 68
340
0
102
{BLKREFS
331
22E
102
}
 70
     0
280
     1
281
     0
  0
BLOCK_RECORD
  5
235
330
1
100
AcDbSymbolTableRecord
100
AcDbBlockTableRecord
  2
block 69
340
0
102
{BLKREFS
331
236
102
}
 70
     0
280
     1
281
     0
  0
BLOCK_RECORD
  5
23D
330
1
100
AcDbSymbolTableRecord
100
AcDbBlockTableRecord
  2
block 70
340
0
102
{BLKREFS
331
23E
102
}
 70
     0
280
     1
281
     0
  0
BLOCK_RECORD
  5
242
330
1
100
AcDbSymbolTableRecord
100
AcDbBlockTableRecord
  2
block 71
340
0
102
{BLKREFS
331
243
102
}
 70
     0
280
     1
281
     0
  0
BLOCK_RECORD
  5
24A
330
1
100
AcDbSymbolTableRecord
100
AcDbBlockTableRecord
  2
block 72
340
0
102
{BLKREFS
331
24B
102
}
 70
     0
280
     1
281
     0
  0
BLOCK_RECORD
  5
252
330
1
100
AcDbSymbolTableRecord
100
AcDbBlockTableRecord
  2
block 73
340
0
102
{BLKREFS
331
253
102
}
 70
     0
280
     1
281
     0
  0
BLOCK_RECORD
  5
25A
330
1
100
AcDbSymbolTableRecord
100
AcDbBlockTableRecord
  2
block 74
340
0
102
{BLKREFS
331
25B
102
}
 70
     0
280
     1
281
     0
  0
BLOCK_RECORD
  5
25F
330
1
100
AcDbSymbolTableRecord
100
AcDbBlockTableRecord
  2
block 75
340
0
102
{BLKREFS
331
260
102
}
 70
     0
280
     1
281
     0
  0
BLOCK_RECORD
  5
267
330
1
100
AcDbSymbolTableRecord
100
AcDbBlockTableRecord
  2
block 76
340
0
102
{BLKREFS
331
268
102
}
 70
     0
280
     1
281
     0
  0
BLOCK_RECORD
  5
26F
330
1
100
AcDbSymbolTableRecord
100
AcDbBlockTableRecord
  2
block 77
340
0
102
{BLKREFS
331
270
102
}
 70
     0
280
     1
281
     0
  0
BLOCK_RECORD
  5
277
330
1
100
AcDbSymbolTableRecord
100
AcDbBlockTableRecord
  2
block 78
340
0
102
{BLKREFS
331
278
102
}
 70
     0
280
     1
281
     0
  0
BLOCK_RECORD
  5
27F
330
1
100
AcDbSymbolTableRecord
100
AcDbBlockTableRecord
  2
block 79
340
0
102
{BLKREFS
331
280
102
}
 70
     0
280
     1
281
     0
  0
BLOCK_RECORD
  5
287
330
1
100
AcDbSymbolTableRecord
100
AcDbBlockTableRecord
  2
block 80
340
0
102
{BLKREFS
331
288
102
}
 70
     0
280
     1
281
     0
  0
BLOCK_RECORD
  5
28F
330
1
100
AcDbSymbolTableRecord
100
AcDbBlockTableRecord
  2
block 81
340
0
102
{BLKREFS
331
290
102
}
 70
     0
280
     1
281
     0
  0
BLOCK_RECORD
  5
297
330
1
100
AcDbSymbolTableRecord
100
AcDbBlockTableRecord
  2
block 82
340
0
102
{BLKREFS
331
298
102
}
 70
     0
280
     1
281
     0
  0
BLOCK_RECORD
  5
29C
330
1
100
AcDbSymbolTableRecord
100
AcDbBlockTableRecord
  2
block 83
340
0
102
{BLKREFS
331
29D
102
}
 70
     0
280
     1
281
     0
  0
BLOCK_RECORD
  5
2A4
330
1
100
AcDbSymbolTableRecord
100
AcDbBlockTableRecord
  2
block 84
340
0
102
{BLKREFS
331
2A5
102
}
 70
     0
280
     1
281
     0
  0
BLOCK_RECORD
  5
2AC
330
1
100
AcDbSymbolTableRecord
100
AcDbBlockTableRecord
  2
block 85
340
0
102
{BLKREFS
331
2AD
102
}
 70
     0
280
     1
281
     0
  0
BLOCK_RECORD
  5
2B4
330
1
100
AcDbSymbolTableRecord
100
AcDbBlockTableRecord
  2
block 86
340
0
102
{BLKREFS
331
2B5
102
}
 70
     0
280
     1
281
     0
  0
BLOCK_RECORD
  5
2BC
330
1
100
AcDbSymbolTableRecord
100
AcDbBlockTableRecord
  2
block 87
340
0
102
{BLKREFS
331
2BD
102
}
 70
     0
280
     1
281
     0
  0
BLOCK_RECORD
  5
2C4
330
1
100
AcDbSymbolTableRecord
100
AcDbBlockTableRecord
  2
block 88
340
0
102
{BLKREFS
331
2C5
102
}
 70
     0
280
     1
281
     0
  0
BLOCK_RECORD
  5
2CC
330
1
100
AcDbSymbolTableRecord
100
AcDbBlockTableRecord
  2
block 89
340
0
102
{BLKREFS
331
2CD
102
}
 70
     0
280
     1
281
     0
  0
BLOCK_RECORD
  5
2D1
330
1
100
AcDbSymbolTableRecord
100
AcDbBlockTableRecord
  2
block 90
340
0
102
{BLKREFS
331
2D2
102
}
 70
     0
280
     1
281
     0
  0
BLOCK_RECORD
  5
2D9
330
1
100
AcDbSymbolTableRecord
100
AcDbBlockTableRecord
  2
block 91
340
0
102
{BLKREFS
331
2DA
102
}
 70
     0
280
     1
281
     0
  0
BLOCK_RECORD
  5
2E1
330
1
100
AcDbSymbolTableRecord
100
AcDbBlockTableRecord
  2
block 92
340
0
102
{BLKREFS
331
2E2
102
}
 70
     0
280
     1
281
     0
  0
BLOCK_RECORD
  5
2E9
330
1
100
AcDbSymbolTableRecord
100
AcDbBlockTableRecord
  2
block 93
340
0
102
{BLKREFS
331
2EA
102
}
 70
     0
280
     1
281
     0
  0
BLOCK_RECORD
  5
2F1
330
1
100
AcDbSymbolTableRecord
100
AcDbBlockTableRecord
  2
block 94
340
0
102
{BLKREFS
331
2F2
102
}
 70
     0
280
     1
281
     0
  0
BLOCK_RECORD
  5
2F9
330
1
100
AcDbSymbolTableRecord
100
AcDbBlockTableRecord
  2
block 95
340
0
102
{BLKREFS
331
2FA
102
}
 70
     0
280
     1
281
     0
  0
BLOCK_RECORD
  5
2FE
330
1
100
AcDbSymbolTableRecord
100
AcDbBlockTableRecord
  2
block 96
340
0
102
{BLKREFS
331
2FF
102
}
 70
     0
280
     1
281
     0
  0
BLOCK_RECORD
  5
306
330
1
100
AcDbSymbolTableRecord
100
AcDbBlockTableRecord
  2
block 97
340
0
102
{BLKREFS
331
307
102
}
 70
     0
280
     1
281
     0
  0
BLOCK_RECORD
  5
30E
330
1
100
AcDbSymbolTableRecord
100
AcDbBlockTableRecord
  2
block 98
340
0
102
{BLKREFS
331
30F
102
}
 70
     0
280
     1
281
     0
  0
BLOCK_RECORD
  5
316
330
1
100
AcDbSymbolTableRecord
100
AcDbBlockTableRecord
  2
block 99
340
0
102
{BLKREFS
331
317
102
}
 70
     0
280
     1
281
     0
  0
BLOCK_RECORD
  5
31E
330
1
100
AcDbSymbolTableRecord
100
AcDbBlockTableRecord
  2
block 100
340
0
102
{BLKREFS
331
31F
102
}
 70
     0
280
     1
281
     0
  0
BLOCK_RECORD
  5
326
330
1
100
AcDbSymbolTableRecord
100
AcDbBlockTableRecord
  2
block 101
340
0
102
{BLKREFS
331
327
102
}
 70
     0
280
     1
281
     0
  0
BLOCK_RECORD
  5
32B
330
1
100
AcDbSymbolTableRecord
100
AcDbBlockTableRecord
  2
block 102
340
0
102
{BLKREFS
331
32C
102
}
 70
     0
280
     1
281
     0
  0
BLOCK_RECORD
  5
330
330
1
100
AcDbSymbolTableRecord
100
AcDbBlockTableRecord
  2
block 103
340
0
102
{BLKREFS
331
331
102
}
 70
     0
280
     1
281
     0
  0
BLOCK_RECORD
  5
335
330
1
100
AcDbSymbolTableRecord
100
AcDbBlockTableRecord
  2
block 104
340
0
102
{BLKREFS
331
336
102
}
 70
     0
280
     1
281
     0
  0
BLOCK_RECORD
  5
33D
330
1
100
AcDbSymbolTableRecord
100
AcDbBlockTableRecord
  2
block 105
340
0
102
{BLKREFS
331
33E
102
}
 70
     0
280
     1
281
     0
  0
BLOCK_RECORD
  5
345
330
1
100
AcDbSymbolTableRecord
100
AcDbBlockTableRecord
  2
block 106
340
0
102
{BLKREFS
331
346
102
}
 70
     0
280
     1
281
     0
  0
BLOCK_RECORD
  5
34D
330
1
100
AcDbSymbolTableRecord
100
AcDbBlockTableRecord
  2
block 107
340
0
102
{BLKREFS
331
34E
102
}
 70
     0
280
     1
281
     0
  0
BLOCK_RECORD
  5
355
330
1
100
AcDbSymbolTableRecord
100
AcDbBlockTableRecord
  2
block 108
340
0
102
{BLKREFS
331
356
102
}
 70
     0
280
     1
281
     0
  0
BLOCK_RECORD
  5
35D
330
1
100
AcDbSymbolTableRecord
100
AcDbBlockTableRecord
  2
block 109
340
0
102
{BLKREFS
331
35E
102
}
 70
     0
280
     1
281
     0
  0
BLOCK_RECORD
  5
365
330
1
100
AcDbSymbolTableRecord
100
AcDbBlockTableRecord
  2
block 110
340
0
102
{BLKREFS
331
366
102
}
 70
     0
280
     1
281
     0
  0
BLOCK_RECORD
  5
36D
330
1
100
AcDbSymbolTableRecord
100
AcDbBlockTableRecord
  2
block 111
340
0
102
{BLKREFS
331
36E
102
}
 70
     0
280
     1
281
     0
  0
BLOCK_RECORD
  5
375
330
1
100
AcDbSymbolTableRecord
100
AcDbBlockTableRecord
  2
block 112
340
0
102
{BLKREFS
331
376
102
}
 70
     0
280
     1
281
     0
  0
BLOCK_RECORD
  5
37D
330
1
100
AcDbSymbolTableRecord
100
AcDbBlockTableRecord
  2
block 113
340
0
102
{BLKREFS
331
37E
102
}
 70
     0
280
     1
281
     0
  0
BLOCK_RECORD
  5
385
330
1
100
AcDbSymbolTableRecord
100
AcDbBlockTableRecord
  2
block 114
340
0
102
{BLKREFS
331
386
102
}
 70
     0
280
     1
281
     0
  0
BLOCK_RECORD
  5
38D
330
1
100
AcDbSymbolTableRecord
100
AcDbBlockTableRecord
  2
block 115
340
0
102
{BLKREFS
331
38E
102
}
 70
     0
280
     1
281
     0
  0
BLOCK_RECORD
  5
395
330
1
100
AcDbSymbolTableRecord
100
AcDbBlockTableRecord
  2
block 116
340
0
102
{BLKREFS
331
396
102
}
 70
     0
280
     1
281
     0
  0
BLOCK_RECORD
  5
39D
330
1
100
AcDbSymbolTableRecord
100
AcDbBlockTableRecord
  2
block 117
340
0
102
{BLKREFS
331
39E
102
}
 70
     0
280
     1
281
     0
  0
BLOCK_RECORD
  5
3A5
330
1
100
AcDbSymbolTableRecord
100
AcDbBlockTableRecord
  2
block 118
340
0
102
{BLKREFS
331
3A6
102
}
 70
     0
280
     1
281
     0
  0
BLOCK_RECORD
  5
3AA
330
1
100
AcDbSymbolTableRecord
100
AcDbBlockTableRecord
  2
block 119
340
0
102
{BLKREFS
331
3AB
102
}
 70
     0
280
     1
281
     0
  0
BLOCK_RECORD
  5
3AF
330
1
100
AcDbSymbolTableRecord
100
AcDbBlockTableRecord
  2
block 120
340
0
102
{BLKREFS
331
3B0
102
}
 70
     0
280
     1
281
     0
  0
BLOCK_RECORD
  5
3B7
330
1
100
AcDbSymbolTableRecord
100
AcDbBlockTableRecord
  2
block 121
340
0
102
{BLKREFS
331
3B8
102
}
 70
     0
280
     1
281
     0
  0
BLOCK_RECORD
  5
3BF
330
1
100
AcDbSymbolTableRecord
100
AcDbBlockTableRecord
  2
block 122
340
0
102
{BLKREFS
331
3C0
102
}
 70
     0
280
     1
281
     0
  0
BLOCK_RECORD
  5
3C7
330
1
100
AcDbSymbolTableRecord
100
AcDbBlockTableRecord
  2
block 123
340
0
102
{BLKREFS
331
3C8
102
}
 70
     0
280
     1
281
     0
  0
BLOCK_RECORD
  5
3CF
330
1
100
AcDbSymbolTableRecord
100
AcDbBlockTableRecord
  2
block 124
340
0
102
{BLKREFS
331
3D0
102
}
 70
     0
280
     1
281
     0
  0
BLOCK_RECORD
  5
3D7
330
1
100
AcDbSymbolTableRecord
100
AcDbBlockTableRecord
  2
block 125
340
0
102
{BLKREFS
331
3D8
102
}
 70
     0
280
     1
281
     0
  0
BLOCK_RECORD
  5
3DF
330
1
100
AcDbSymbolTableRecord
100
AcDbBlockTableRecord
  2
block 126
340
0
102
{BLKREFS
331
3E0
102
}
 70
     0
280
     1
281
     0
  0
BLOCK_RECORD
  5
3E4
330
1
100
AcDbSymbolTableRecord
100
AcDbBlockTableRecord
  2
block 127
340
0
102
{BLKREFS
331
3E5
102
}
 70
     0
280
     1
281
     0
  0
BLOCK_RECORD
  5
3EC
330
1
100
AcDbSymbolTableRecord
100
AcDbBlockTableRecord
  2
block 128
340
0
102
{BLKREFS
331
3ED
102
}
 70
     0
280
     1
281
     0
  0
BLOCK_RECORD
  5
3F4
330
1
100
AcDbSymbolTableRecord
100
AcDbBlockTableRecord
  2
block 129
340
0
102
{BLKREFS
331
3F5
102
}
 70
     0
280
     1
281
     0
  0
BLOCK_RECORD
  5
3FC
330
1
100
AcDbSymbolTableRecord
100
AcDbBlockTableRecord
  2
block 130
340
0
102
{BLKREFS
331
3FD
102
}
 70
     0
280
     1
281
     0
  0
BLOCK_RECORD
  5
401
330
1
100
AcDbSymbolTableRecord
100
AcDbBlockTableRecord
  2
block 131
340
0
102
{BLKREFS
331
402
102
}
 70
     0
280
     1
281
     0
  0
BLOCK_RECORD
  5
409
330
1
100
AcDbSymbolTableRecord
100
AcDbBlockTableRecord
  2
block 132
340
0
102
{BLKREFS
331
40A
102
}
 70
     0
280
     1
281
     0
  0
BLOCK_RECORD
  5
411
330
1
100
AcDbSymbolTableRecord
100
AcDbBlockTableRecord
  2
block 133
340
0
102
{BLKREFS
331
412
102
}
 70
     0
280
     1
281
     0
  0
BLOCK_RECORD
  5
419
330
1
100
AcDbSymbolTableRecord
100
AcDbBlockTableRecord
  2
block 134
340
0
102
{BLKREFS
331
41A
102
}
 70
     0
280
     1
281
     0
  0
BLOCK_RECORD
  5
421
330
1
100
AcDbSymbolTableRecord
100
AcDbBlockTableRecord
  2
block 135
340
0
102
{BLKREFS
331
422
102
}
 70
     0
280
     1
281
     0
  0
BLOCK_RECORD
  5
429
330
1
100
AcDbSymbolTableRecord
100
AcDbBlockTableRecord
  2
block 136
340
0
102
{BLKREFS
331
42A
102
}
 70
     0
280
     1
281
     0
  0
BLOCK_RECORD
  5
431
330
1
100
AcDbSymbolTableRecord
100
AcDbBlockTableRecord
  2
block 137
340
0
102
{BLKREFS
331
432
102
}
 70
     0
280
     1
281
     0
  0
BLOCK_RECORD
  5
439
330
1
100
AcDbSymbolTableRecord
100
AcDbBlockTableRecord
  2
block 138
340
0
102
{BLKREFS
331
43A
102
}
 70
     0
280
     1
281
     0
  0
BLOCK_RECORD
  5
441
330
1
100
AcDbSymbolTableRecord
100
AcDbBlockTableRecord
  2
block 139
340
0
102
{BLKREFS
331
442
102
}
 70
     0
280
     1
281
     0
  0
BLOCK_RECORD
  5
449
330
1
100
AcDbSymbolTableRecord
100
AcDbBlockTableRecord
  2
block 140
340
0
102
{BLKREFS
331
44A
102
}
 70
     0
280
     1
281
     0
  0
BLOCK_RECORD
  5
451
330
1
100
AcDbSymbolTableRecord
100
AcDbBlockTableRecord
  2
block 141
340
0
102
{BLKREFS
331
452
102
}
 70
     0
280
     1
281
     0
  0
BLOCK_RECORD
  5
459
330
1
100
AcDbSymbolTableRecord
100
AcDbBlockTableRecord
  2
block 142
340
0
102
{BLKREFS
331
45A
102
}
 70
     0
280
     1
281
     0
  0
BLOCK_RECORD
  5
461
330
1
100
AcDbSymbolTableRecord
100
AcDbBlockTableRecord
  2
block 143
340
0
102
{BLKREFS
331
462
102
}
 70
     0
280
     1
281
     0
  0
BLOCK_RECORD
  5
469
330
1
100
AcDbSymbolTableRecord
100
AcDbBlockTableRecord
  2
block 144
340
0
102
{BLKREFS
331
46A
102
}
 70
     0
280
     1
281
     0
  0
BLOCK_RECORD
  5
471
330
1
100
AcDbSymbolTableRecord
100
AcDbBlockTableRecord
  2
block 145
340
0
102
{BLKREFS
331
472
102
}
 70
     0
280
     1
281
     0
  0
BLOCK_RECORD
  5
479
330
1
100
AcDbSymbolTableRecord
100
AcDbBlockTableRecord
  2
block 146
340
0
102
{BLKREFS
331
47A
102
}
 70
     0
280
     1
281
     0
  0
BLOCK_RECORD
  5
47E
330
1
100
AcDbSymbolTableRecord
100
AcDbBlockTableRecord
  2
block 147
340
0
102
{BLKREFS
331
47F
102
}
 70
     0
280
     1
281
     0
  0
BLOCK_RECORD
  5
483
330
1
100
AcDbSymbolTableRecord
100
AcDbBlockTableRecord
  2
block 148
340
0
102
{BLKREFS
331
484
102
}
 70
     0
280
     1
281
     0
  0
BLOCK_RECORD
  5
48B
330
1
100
AcDbSymbolTableRecord
100
AcDbBlockTableRecord
  2
block 149
340
0
102
{BLKREFS
331
48C
102
}
 70
     0
280
     1
281
     0
  0
BLOCK_RECORD
  5
490
330
1
100
AcDbSymbolTableRecord
100
AcDbBlockTableRecord
  2
block 150
340
0
102
{BLKREFS
331
491
102
}
 70
     0
280
     1
281
     0
  0
BLOCK_RECORD
  5
498
330
1
100
AcDbSymbolTableRecord
100
AcDbBlockTableRecord
  2
block 151
340
0
102
{BLKREFS
331
499
102
}
 70
     0
280
     1
281
     0
  0
BLOCK_RECORD
  5
4A0
330
1
100
AcDbSymbolTableRecord
100
AcDbBlockTableRecord
  2
block 152
340
0
102
{BLKREFS
331
4A1
102
}
 70
     0
280
     1
281
     0
  0
BLOCK_RECORD
  5
4A5
330
1
100
AcDbSymbolTableRecord
100
AcDbBlockTableRecord
  2
block 153
340
0
102
{BLKREFS
331
4A6
102
}
 70
     0
280
     1
281
     0
  0
BLOCK_RECORD
  5
4AD
330
1
100
AcDbSymbolTableRecord
100
AcDbBlockTableRecord
  2
block 154
340
0
102
{BLKREFS
331
4AE
102
}
 70
     0
280
     1
281
     0
  0
BLOCK_RECORD
  5
4B5
330
1
100
AcDbSymbolTableRecord
100
AcDbBlockTableRecord
  2
block 155
340
0
102
{BLKREFS
331
4B6
102
}
 70
     0
280
     1
281
     0
  0
BLOCK_RECORD
  5
4BD
330
1
100
AcDbSymbolTableRecord
100
AcDbBlockTableRecord
  2
block 156
340
0
102
{BLKREFS
331
4BE
102
}
 70
     0
280
     1
281
     0
  0
BLOCK_RECORD
  5
4C5
330
1
100
AcDbSymbolTableRecord
100
AcDbBlockTableRecord
  2
block 157
340
0
102
{BLKREFS
331
4C6
102
}
 70
     0
280
     1
281
     0
  0
BLOCK_RECORD
  5
4CD
330
1
100
AcDbSymbolTableRecord
100
AcDbBlockTableRecord
  2
block 158
340
0
102
{BLKREFS
331
4CE
102
}
 70
     0
280
     1
281
     0
  0
BLOCK_RECORD
  5
4D5
330
1
100
AcDbSymbolTableRecord
100
AcDbBlockTableRecord
  2
block 159
340
0
102
{BLKREFS
331
4D6
102
}
 70
     0
280
     1
281
     0
  0
BLOCK_RECORD
  5
4DD
330
1
100
AcDbSymbolTableRecord
100
AcDbBlockTableRecord
  2
block 160
340
0
102
{BLKREFS
331
4DE
102
}
 70
     0
280
     1
281
     0
  0
BLOCK_RECORD
  5
4E5
330
1
100
AcDbSymbolTableRecord
100
AcDbBlockTableRecord
  2
block 161
340
0
102
{BLKREFS
331
4E6
102
}
 70
     0
280
     1
281
     0
  0
BLOCK_RECORD
  5
4ED
330
1
100
AcDbSymbolTableRecord
100
AcDbBlockTableRecord
  2
block 162
340
0
102
{BLKREFS
331
4EE
102
}
 70
     0
280
     1
281
     0
  0
BLOCK_RECORD
  5
4F5
330
1
100
AcDbSymbolTableRecord
100
AcDbBlockTableRecord
  2
block 163
340
0
102
{BLKREFS
331
4F6
102
}
 70
     0
280
     1
281
     0
  0
BLOCK_RECORD
  5
4FD
330
1
100
AcDbSymbolTableRecord
100
AcDbBlockTableRecord
  2
block 164
340
0
102
{BLKREFS
331
4FE
102
}
 70
     0
280
     1
281
     0
  0
BLOCK_RECORD
  5
502
330
1
100
AcDbSymbolTableRecord
100
AcDbBlockTableRecord
  2
block 165
340
0
102
{BLKREFS
331
503
102
}
 70
     0
280
     1
281
     0
  0
BLOCK_RECORD
  5
50A
330
1
100
AcDbSymbolTableRecord
100
AcDbBlockTableRecord
  2
block 166
340
0
102
{BLKREFS
331
50B
102
}
 70
     0
280
     1
281
     0
  0
BLOCK_RECORD
  5
512
330
1
100
AcDbSymbolTableRecord
100
AcDbBlockTableRecord
  2
block 167
340
0
102
{BLKREFS
331
513
102
}
 70
     0
280
     1
281
     0
  0
BLOCK_RECORD
  5
517
330
1
100
AcDbSymbolTableRecord
100
AcDbBlockTableRecord
  2
block 168
340
0
102
{BLKREFS
331
518
102
}
 70
     0
280
     1
281
     0
  0
BLOCK_RECORD
  5
51C
330
1
100
AcDbSymbolTableRecord
100
AcDbBlockTableRecord
  2
block 169
340
0
102
{BLKREFS
331
51D
102
}
 70
     0
280
     1
281
     0
  0
BLOCK_RECORD
  5
524
330
1
100
AcDbSymbolTableRecord
100
AcDbBlockTableRecord
  2
block 170
340
0
102
{BLKREFS
331
525
102
}
 70
     0
280
     1
281
     0
  0
BLOCK_RECORD
  5
529
330
1
100
AcDbSymbolTableRecord
100
AcDbBlockTableRecord
  2
block 171
340
0
102
{BLKREFS
331
52A
102
}
 70
     0
280
     1
281
     0
  0
BLOCK_RECORD
  5
531
330
1
100
AcDbSymbolTableRecord
100
AcDbBlockTableRecord
  2
block 172
340
0
102
{BLKREFS
331
532
102
}
 70
     0
280
     1
281
     0
  0
BLOCK_RECORD
  5
539
330
1
100
AcDbSymbolTableRecord
100
AcDbBlockTableRecord
  2
block 173
340
0
102
{BLKREFS
331
53A
102
}
 70
     0
280
     1
281
     0
  0
BLOCK_RECORD
  5
541
330
1
100
AcDbSymbolTableRecord
100
AcDbBlockTableRecord
  2
block 174
340
0
102
{BLKREFS
331
542
102
}
 70
     0
280
     1
281
     0
  0
BLOCK_RECORD
  5
549
330
1
100
AcDbSymbolTableRecord
100
AcDbBlockTableRecord
  2
block 175
340
0
102
{BLKREFS
331
54A
102
}
 70
     0
280
     1
281
     0
  0
BLOCK_RECORD
  5
54E
330
1
100
AcDbSymbolTableRecord
100
AcDbBlockTableRecord
  2
block 176
340
0
102
{BLKREFS
331
54F
102
}
 70
     0
280
     1
281
     0
  0
BLOCK_RECORD
  5
556
330
1
100
AcDbSymbolTableRecord
100
AcDbBlockTableRecord
  2
block 177
340
0
102
{BLKREFS
331
557
102
}
 70
     0
280
     1
281
     0
  0
BLOCK_RECORD
  5
55E
330
1
100
AcDbSymbolTableRecord
100
AcDbBlockTableRecord
  2
block 178
340
0
102
{BLKREFS
331
55F
102
}
 70
     0
280
     1
281
     0
  0
BLOCK_RECORD
  5
563
330
1
100
AcDbSymbolTableRecord
100
AcDbBlockTableRecord
  2
block 179
340
0
102
{BLKREFS
331
564
102
}
 70
     0
280
     1
281
     0
  0
BLOCK_RECORD
  5
56B
330
1
100
AcDbSymbolTableRecord
100
AcDbBlockTableRecord
  2
block 180
340
0
102
{BLKREFS
331
56C
102
}
 70
     0
280
     1
281
     0
  0
BLOCK_RECORD
  5
570
330
1
100
AcDbSymbolTableRecord
100
AcDbBlockTableRecord
  2
block 181
340
0
102
{BLKREFS
331
571
102
}
 70
     0
280
     1
281
     0
  0
BLOCK_RECORD
  5
578
330
1
100
AcDbSymbolTableRecord
100
AcDbBlockTableRecord
  2
block 182
340
0
102
{BLKREFS
331
579
102
}
 70
     0
280
     1
281
     0
  0
BLOCK_RECORD
  5
57D
330
1
100
AcDbSymbolTableRecord
100
AcDbBlockTableRecord
  2
block 183
340
0
102
{BLKREFS
331
57E
102
}
 70
     0
280
     1
281
     0
  0
BLOCK_RECORD
  5
585
330
1
100
AcDbSymbolTableRecord
100
AcDbBlockTableRecord
  2
block 184
340
0
102
{BLKREFS
331
586
102
}
 70
     0
280
     1
281
     0
  0
BLOCK_RECORD
  5
58A
330
1
100
AcDbSymbolTableRecord
100
AcDbBlockTableRecord
  2
block 185
340
0
102
{BLKREFS
331
58B
102
}
 70
     0
280
     1
281
     0
  0
BLOCK_RECORD
  5
592
330
1
100
AcDbSymbolTableRecord
100
AcDbBlockTableRecord
  2
block 186
340
0
102
{BLKREFS
331
593
102
}
 70
     0
280
     1
281
     0
  0
BLOCK_RECORD
  5
59A
330
1
100
AcDbSymbolTableRecord
100
AcDbBlockTableRecord
  2
block 187
340
0
102
{BLKREFS
331
59B
102
}
 70
     0
280
     1
281
     0
  0
BLOCK_RECORD
  5
5A2
330
1
100
AcDbSymbolTableRecord
100
AcDbBlockTableRecord
  2
block 188
340
0
102
{BLKREFS
331
5A3
102
}
 70
     0
280
     1
281
     0
  0
BLOCK_RECORD
  5
5A7
330
1
100
AcDbSymbolTableRecord
100
AcDbBlockTableRecord
  2
block 189
340
0
102
{BLKREFS
331
5A8
102
}
 70
     0
280
     1
281
     0
  0
BLOCK_RECORD
  5
5AF
330
1
100
AcDbSymbolTableRecord
100
AcDbBlockTableRecord
  2
block 190
340
0
102
{BLKREFS
331
5B0
102
}
 70
     0
280
     1
281
     0
  0
BLOCK_RECORD
  5
5B7
330
1
100
AcDbSymbolTableRecord
100
AcDbBlockTableRecord
  2
block 191
340
0
102
{BLKREFS
331
5B8
102
}
 70
     0
280
     1
281
     0
  0
BLOCK_RECORD
  5
5BF
330
1
100
AcDbSymbolTableRecord
100
AcDbBlockTableRecord
  2
block 192
340
0
102
{BLKREFS
331
5C0
102
}
 70
     0
280
     1
281
     0
  0
BLOCK_RECORD
  5
5C7
330
1
100
AcDbSymbolTableRecord
100
AcDbBlockTableRecord
  2
block 193
340
0
102
{BLKREFS
331
5C8
102
}
 70
     0
280
     1
281
     0
  0
BLOCK_RECORD
  5
5CC
330
1
100
AcDbSymbolTableRecord
100
AcDbBlockTableRecord
  2
block 194
340
0
102
{BLKREFS
331
5CD
102
}
 70
     0
280
     1
281
     0
  0
BLOCK_RECORD
  5
5D4
330
1
100
AcDbSymbolTableRecord
100
AcDbBlockTableRecord
  2
block 195
340
0
102
{BLKREFS
331
5D5
102
}
 70
     0
280
     1
281
     0
  0
BLOCK_RECORD
  5
5DC
330
1
100
AcDbSymbolTableRecord
100
AcDbBlockTableRecord
  2
block 196
340
0
102
{BLKREFS
331
5DD
102
}
 70
     0
280
     1
281
     0
  0
BLOCK_RECORD
  5
5E1
330
1
100
AcDbSymbolTableRecord
100
AcDbBlockTableRecord
  2
block 197
340
0
102
{BLKREFS
331
5E2
102
}
 70
     0
280
     1
281
     0
  0
BLOCK_RECORD
  5
5E6
330
1
100
AcDbSymbolTableRecord
100
AcDbBlockTableRecord
  2
block 198
340
0
102
{BLKREFS
331
5E7
102
}
 70
     0
280
     1
281
     0
  0
BLOCK_RECORD
  5
5EE
330
1
100
AcDbSymbolTableRecord
100
AcDbBlockTableRecord
  2
block 199
340
0
102
{BLKREFS
331
5EF
102
}
 70
     0
280
     1
281
     0
  0
BLOCK_RECORD
  5
5F6
330
1
100
AcDbSymbolTableRecord
100
AcDbBlockTableRecord
  2
block 200
340
0
102
{BLKREFS
331
5F7
102
}
 70
     0
280
     1
281
     0
  0
BLOCK_RECORD
  5
5FE
330
1
100
AcDbSymbolTableRecord
100
AcDbBlockTableRecord
  2
block 201
340
0
102
{BLKREFS
331
5FF
102
}
 70
     0
280
     1
281
     0
  0
BLOCK_RECORD
  5
603
330
1
100
AcDbSymbolTableRecord
100
AcDbBlockTableRecord
  2
block 202
340
0
102
{BLKREFS
331
604
102
}
 70
     0
280
     1
281
     0
  0
BLOCK_RECORD
  5
60B
330
1
100
AcDbSymbolTableRecord
100
AcDbBlockTableRecord
  2
block 203
340
0
102
{BLKREFS
331
60C
102
}
 70
     0
280
     1
281
     0
  0
BLOCK_RECORD
  5
610
330
1
100
AcDbSymbolTableRecord
100
AcDbBlockTableRecord
  2
block 204
340
0
102
{BLKREFS
331
611
102
}
 70
     0
280
     1
281
     0
  0
BLOCK_RECORD
  5
618
330
1
100
AcDbSymbolTableRecord
100
AcDbBlockTableRecord
  2
block 205
340
0
102
{BLKREFS
331
619
102
}
 70
     0
280
     1
281
     0
  0
BLOCK_RECORD
  5
620
330
1
100
AcDbSymbolTableRecord
100
AcDbBlockTableRecord
  2
block 206
340
0
102
{BLKREFS
331
621
102
}
 70
     0
280
     1
281
     0
  0
BLOCK_RECORD
  5
628
330
1
100
AcDbSymbolTableRecord
100
AcDbBlockTableRecord
  2
block 207
340
0
102
{BLKREFS
331
629
102
}
 70
     0
280
     1
281
     0
  0
BLOCK_RECORD
  5
62D
330
1
100
AcDbSymbolTableRecord
100
AcDbBlockTableRecord
  2
block 208
340
0
102
{BLKREFS
331
62E
102
}
 70
     0
280
     1
281
     0
  0
BLOCK_RECORD
  5
632
330
1
100
AcDbSymbolTableRecord
100
AcDbBlockTableRecord
  2
block 209
340
0
102
{BLKREFS
331
633
102
}
 70
     0
280
     1
281
     0
  0
BLOCK_RECORD
  5
637
330
1
100
AcDbSymbolTableRecord
100
AcDbBlockTableRecord
  2
block 210
340
0
102
{BLKREFS
331
638
102
}
 70
     0
280
     1
281
     0
  0
BLOCK_RECORD
  5
63F
330
1
100
AcDbSymbolTableRecord
100
AcDbBlockTableRecord
  2
block 211
340
0
102
{BLKREFS
331
640
102
}
 70
     0
280
     1
281
     0
  0
BLOCK_RECORD
  5
647
330
1
100
AcDbSymbolTableRecord
100
AcDbBlockTableRecord
  2
block 212
340
0
102
{BLKREFS
331
648
102
}
 70
     0
280
     1
281
     0
  0
BLOCK_RECORD
  5
64C
330
1
100
AcDbSymbolTableRecord
100
AcDbBlockTableRecord
  2
block 213
340
0
102
{BLKREFS
331
64D
102
}
 70
     0
280
     1
281
     0
  0
BLOCK_RECORD
  5
651
330
1
100
AcDbSymbolTableRecord
100
AcDbBlockTableRecord
  2
block 214
340
0
102
{BLKREFS
331
652
102
}
 70
     0
280
     1
281
     0
  0
BLOCK_RECORD
  5
656
330
1
100
AcDbSymbolTableRecord
100
AcDbBlockTableRecord
  2
block 215
340
0
102
{BLKREFS
331
657
102
}
 70
     0
280
     1
281
     0
  0
BLOCK_RECORD
  5
65F
330
1
100
AcDbSymbolTableRecord
100
AcDbBlockTableRecord
  2
block 216
340
0
102
{BLKREFS
331
660
102
}
 70
     0
280
     1
281
     0
  0
BLOCK_RECORD
  5
665
330
1
100
AcDbSymbolTableRecord
100
AcDbBlockTableRecord
  2
block 217
340
0
102
{BLKREFS
331
666
102
}
 70
     0
280
     1
281
     0
  0
BLOCK_RECORD
  5
66B
330
1
100
AcDbSymbolTableRecord
100
AcDbBlockTableRecord
  2
block 218
340
0
102
{BLKREFS
331
66C
102
}
 70
     0
280
     1
281
     0
  0
BLOCK_RECORD
  5
674
330
1
100
AcDbSymbolTableRecord
100
AcDbBlockTableRecord
  2
block 219
340
0
102
{BLKREFS
331
675
102
}
 70
     0
280
     1
281
     0
  0
BLOCK_RECORD
  5
67D
330
1
100
AcDbSymbolTableRecord
100
AcDbBlockTableRecord
  2
block 220
340
0
102
{BLKREFS
331
67E
102
}
 70
     0
280
     1
281
     0
  0
BLOCK_RECORD
  5
683
330
1
100
AcDbSymbolTableRecord
100
AcDbBlockTableRecord
  2
block 221
340
0
102
{BLKREFS
331
684
102
}
 70
     0
280
     1
281
     0
  0
BLOCK_RECORD
  5
68B
330
1
100
AcDbSymbolTableRecord
100
AcDbBlockTableRecord
  2
block 222
340
0
102
{BLKREFS
331
68C
102
}
 70
     0
280
     1
281
     0
  0
BLOCK_RECORD
  5
694
330
1
100
AcDbSymbolTableRecord
100
AcDbBlockTableRecord
  2
block 223
340
0
102
{BLKREFS
331
695
102
}
 70
     0
280
     1
281
     0
  0
BLOCK_RECORD
  5
69C
330
1
100
AcDbSymbolTableRecord
100
AcDbBlockTableRecord
  2
block 224
340
0
102
{BLKREFS
331
69D
102
}
 70
     0
280
     1
281
     0
  0
BLOCK_RECORD
  5
6A2
330
1
100
AcDbSymbolTableRecord
100
AcDbBlockTableRecord
  2
block 225
340
0
102
{BLKREFS
331
6A3
102
}
 70
     0
280
     1
281
     0
  0
BLOCK_RECORD
  5
6AB
330
1
100
AcDbSymbolTableRecord
100
AcDbBlockTableRecord
  2
block 226
340
0
102
{BLKREFS
331
6AC
102
}
 70
     0
280
     1
281
     0
  0
BLOCK_RECORD
  5
6B4
330
1
100
AcDbSymbolTableRecord
100
AcDbBlockTableRecord
  2
block 227
340
0
102
{BLKREFS
331
6B5
102
}
 70
     0
280
     1
281
     0
  0
BLOCK_RECORD
  5
6BD
330
1
100
AcDbSymbolTableRecord
100
AcDbBlockTableRecord
  2
block 228
340
0
102
{BLKREFS
331
6BE
102
}
 70
     0
280
     1
281
     0
  0
BLOCK_RECORD
  5
6C6
330
1
100
AcDbSymbolTableRecord
100
AcDbBlockTableRecord
  2
block 229
340
0
102
{BLKREFS
331
6C7
102
}
 70
     0
280
     1
281
     0
  0
BLOCK_RECORD
  5
6CF
330
1
100
AcDbSymbolTableRecord
100
AcDbBlockTableRecord
  2
block 230
340
0
102
{BLKREFS
331
6D0
102
}
 70
     0
280
     1
281
     0
  0
BLOCK_RECORD
  5
6D8
330
1
100
AcDbSymbolTableRecord
100
AcDbBlockTableRecord
  2
block 231
340
0
102
{BLKREFS
331
6D9
102
}
 70
     0
280
     1
281
     0
  0
BLOCK_RECORD
  5
6E1
330
1
100
AcDbSymbolTableRecord
100
AcDbBlockTableRecord
  2
block 232
340
0
102
{BLKREFS
331
6E2
102
}
 70
     0
280
     1
281
     0
  0
BLOCK_RECORD
  5
6EA
330
1
100
AcDbSymbolTableRecord
100
AcDbBlockTableRecord
  2
block 233
340
0
102
{BLKREFS
331
6EB
102
}
 70
     0
280
     1
281
     0
  0
BLOCK_RECORD
  5
6F0
330
1
100
AcDbSymbolTableRecord
100
AcDbBlockTableRecord
  2
block 234
340
0
102
{BLKREFS
331
6F1
102
}
 70
     0
280
     1
281
     0
  0
BLOCK_RECORD
  5
6F8
330
1
100
AcDbSymbolTableRecord
100
AcDbBlockTableRecord
  2
block 235
340
0
102
{BLKREFS
331
6F9
102
}
 70
     0
280
     1
281
     0
  0
BLOCK_RECORD
  5
701
330
1
100
AcDbSymbolTableRecord
100
AcDbBlockTableRecord
  2
block 236
340
0
102
{BLKREFS
331
702
102
}
 70
     0
280
     1
281
     0
  0
BLOCK_RECORD
  5
709
330
1
100
AcDbSymbolTableRecord
100
AcDbBlockTableRecord
  2
block 237
340
0
102
{BLKREFS
331
70A
102
}
 70
     0
280
     1
281
     0
  0
BLOCK_RECORD
  5
712
330
1
100
AcDbSymbolTableRecord
100
AcDbBlockTableRecord
  2
block 238
340
0
102
{BLKREFS
331
713
102
}
 70
     0
280
     1
281
     0
  0
BLOCK_RECORD
  5
71B
330
1
100
AcDbSymbolTableRecord
100
AcDbBlockTableRecord
  2
block 239
340
0
102
{BLKREFS
331
71C
102
}
 70
     0
280
     1
281
     0
  0
BLOCK_RECORD
  5
724
330
1
100
AcDbSymbolTableRecord
100
AcDbBlockTableRecord
  2
block 240
340
0
102
{BLKREFS
331
725
102
}
 70
     0
280
     1
281
     0
  0
BLOCK_RECORD
  5
72D
330
1
100
AcDbSymbolTableRecord
100
AcDbBlockTableRecord
  2
block 241
340
0
102
{BLKREFS
331
72E
102
}
 70
     0
280
     1
281
     0
  0
BLOCK_RECORD
  5
736
330
1
100
AcDbSymbolTableRecord
100
AcDbBlockTableRecord
  2
block 242
340
0
102
{BLKREFS
331
737
102
}
 70
     0
280
     1
281
     0
  0
BLOCK_RECORD
  5
73F
330
1
100
AcDbSymbolTableRecord
100
AcDbBlockTableRecord
  2
block 243
340
0
102
{BLKREFS
331
740
102
}
 70
     0
280
     1
281
     0
  0
BLOCK_RECORD
  5
748
330
1
100
AcDbSymbolTableRecord
100
AcDbBlockTableRecord
  2
block 244
340
0
102
{BLKREFS
331
749
102
}
 70
     0
280
     1
281
     0
  0
BLOCK_RECORD
  5
751
330
1
100
AcDbSymbolTableRecord
100
AcDbBlockTableRecord
  2
block 245
340
0
102
{BLKREFS
331
752
102
}
 70
     0
280
     1
281
     0
  0
ENDTAB
  0
ENDSEC
  0
SECTION
  2
BLOCKS
  0
BLOCK
  5
20
330
1F
100
AcDbEntity
  8
0
100
AcDbBlockBegin
  2
*Model_Space
 70
     0
 10
0.0
 20
0.0
 30
0.0
  3
*Model_Space
  1

  0
ENDBLK
  5
21
330
1F
100
AcDbEntity
  8
0
100
AcDbBlockEnd
  0
BLOCK
  5
1C
330
1B
100
AcDbEntity
 67
     1
  8
0
100
AcDbBlockBegin
  2
*Paper_Space
 70
     0
 10
0.0
 20
0.0
 30
0.0
  3
*Paper_Space
  1

  0
ENDBLK
  5
1D
330
1B
100
AcDbEntity
 67
     1
  8
0
100
AcDbBlockEnd
  0
BLOCK
  5
24
330
23
100
AcDbEntity
  8
0
100
AcDbBlockBegin
  2
*Paper_Space0
 70
     0
 10
0.0
 20
0.0
 30
0.0
  3
*Paper_Space0
  1

  0
ENDBLK
  5
25
330
23
100
AcDbEntity
  8
0
100
AcDbBlockEnd
  0
BLOCK
  5
43
330
41
100
AcDbEntity
  8
0
100
AcDbBlockBegin
  2
block 2
 70
     0
 10
0.0
 20
0.0
 30
0.0
  3
block 2
  1

  0
POLYLINE
  5
45
330
41
100
AcDbEntity
  8
CSLAYER1
370
     0
100
AcDb2dPolyline
 66
     1
 10
0.0
 20
0.0
 30
0.0
  0
VERTEX
  5
46
330
45
100
AcDbEntity
  8
CSLAYER1
370
     0
100
AcDbVertex
100
AcDb2dVertex
 10
254.9194444073145
 20
185.379166614147
 30
0.0
  0
VERTEX
  5
47
330
45
100
AcDbEntity
  8
CSLAYER1
370
     0
100
AcDbVertex
100
AcDb2dVertex
 10
254.9194444073145
 20
185.379166614147
 30
0.0
  0
SEQEND
  5
48
330
45
100
AcDbEntity
  8
CSLAYER1
370
     0
  0
ENDBLK
  5
44
330
41
100
AcDbEntity
  8
0
100
AcDbBlockEnd
  0
BLOCK
  5
4B
330
49
100
AcDbEntity
  8
0
100
AcDbBlockBegin
  2
block 3
 70
     0
 10
0.0
 20
0.0
 30
0.0
  3
block 3
  1

  0
POLYLINE
  5
4D
330
49
100
AcDbEntity
  8
CSLAYER1
370
     0
100
AcDb2dPolyline
 66
     1
 10
0.0
 20
0.0
 30
0.0
  0
VERTEX
  5
4E
330
4D
100
AcDbEntity
  8
CSLAYER1
370
     0
100
AcDbVertex
100
AcDb2dVertex
 10
275.4194444073142
 20
185.379166614147
 30
0.0
  0
VERTEX
  5
4F
330
4D
100
AcDbEntity
  8
CSLAYER1
370
     0
100
AcDbVertex
100
AcDb2dVertex
 10
275.4194444073142
 20
185.379166614147
 30
0.0
  0
SEQEND
  5
50
330
4D
100
AcDbEntity
  8
CSLAYER1
370
     0
  0
ENDBLK
  5
4C
330
49
100
AcDbEntity
  8
0
100
AcDbBlockEnd
  0
BLOCK
  5
53
330
51
100
AcDbEntity
  8
0
100
AcDbBlockBegin
  2
block 4
 70
     0
 10
0.0
 20
0.0
 30
0.0
  3
block 4
  1

  0
POLYLINE
  5
55
330
51
100
AcDbEntity
  8
CSLAYER1
370
     0
100
AcDb2dPolyline
 66
     1
 10
0.0
 20
0.0
 30
0.0
  0
VERTEX
  5
56
330
55
100
AcDbEntity
  8
CSLAYER1
370
     0
100
AcDbVertex
100
AcDb2dVertex
 10
275.4194444073142
 20
195.3791666141467
 30
0.0
  0
VERTEX
  5
57
330
55
100
AcDbEntity
  8
CSLAYER1
370
     0
100
AcDbVertex
100
AcDb2dVertex
 10
275.4194444073142
 20
195.3791666141467
 30
0.0
  0
SEQEND
  5
58
330
55
100
AcDbEntity
  8
CSLAYER1
370
     0
  0
ENDBLK
  5
54
330
51
100
AcDbEntity
  8
0
100
AcDbBlockEnd
  0
BLOCK
  5
5B
330
59
100
AcDbEntity
  8
0
100
AcDbBlockBegin
  2
block 5
 70
     0
 10
0.0
 20
0.0
 30
0.0
  3
block 5
  1

  0
POLYLINE
  5
5D
330
59
100
AcDbEntity
  8
CSLAYER1
370
     0
100
AcDb2dPolyline
 66
     1
 10
0.0
 20
0.0
 30
0.0
  0
VERTEX
  5
5E
330
5D
100
AcDbEntity
  8
CSLAYER1
370
     0
100
AcDbVertex
100
AcDb2dVertex
 10
254.9194444073145
 20
195.3791666141467
 30
0.0
  0
VERTEX
  5
5F
330
5D
100
AcDbEntity
  8
CSLAYER1
370
     0
100
AcDbVertex
100
AcDb2dVertex
 10
254.9194444073145
 20
195.3791666141467
 30
0.0
  0
SEQEND
  5
60
330
5D
100
AcDbEntity
  8
CSLAYER1
370
     0
  0
ENDBLK
  5
5C
330
59
100
AcDbEntity
  8
0
100
AcDbBlockEnd
  0
BLOCK
  5
63
330
61
100
AcDbEntity
  8
0
100
AcDbBlockBegin
  2
block 6
 70
     0
 10
0.0
 20
0.0
 30
0.0
  3
block 6
  1

  0
MTEXT
  5
65
330
61
100
AcDbEntity
  8
CSLAYER1
 62
     3
420
    65280
100
AcDbMText
 10
242.519413018526
 20
192.8791613626418
 30
0.0
 40
5.000000069194743
 41
0.0
 46
0.0
 71
     7
 72
     1
  1
\fKozuka Gothic Pr6N R|b0|i0|c0|p34;\W1.35273;遮詊荌荮
 73
     1
 44
1.0
  0
ENDBLK
  5
64
330
61
100
AcDbEntity
  8
0
100
AcDbBlockEnd
  0
BLOCK
  5
68
330
66
100
AcDbEntity
  8
0
100
AcDbBlockBegin
  2
block 7
 70
     0
 10
0.0
 20
0.0
 30
0.0
  3
block 7
  1

  0
MTEXT
  5
6A
330
66
100
AcDbEntity
  8
CSLAYER1
 62
     3
420
    65280
100
AcDbMText
 10
242.4194191220666
 20
182.8791688249942
 30
0.0
 40
5.000000069194743
 41
0.0
 46
0.0
 71
     7
 72
     1
  1
\fKozuka Gothic Pr6N R|b0|i0|c0|p34;\W1.07143;郘遮閔靌賸
 73
     1
 44
1.0
  0
ENDBLK
  5
69
330
66
100
AcDbEntity
  8
0
100
AcDbBlockEnd
  0
BLOCK
  5
6D
330
6B
100
AcDbEntity
  8
0
100
AcDbBlockBegin
  2
block 8
 70
     0
 10
0.0
 20
0.0
 30
0.0
  3
block 8
  1

  0
POLYLINE
  5
6F
330
6B
100
AcDbEntity
  8
CSLAYER1
370
     0
100
AcDb2dPolyline
 66
     1
 10
0.0
 20
0.0
 30
0.0
  0
VERTEX
  5
70
330
6F
100
AcDbEntity
  8
CSLAYER1
370
     0
100
AcDbVertex
100
AcDb2dVertex
 10
158.0194444073146
 20
250.079166614147
 30
0.0
  0
VERTEX
  5
71
330
6F
100
AcDbEntity
  8
CSLAYER1
370
     0
100
AcDbVertex
100
AcDb2dVertex
 10
158.0194444073146
 20
250.079166614147
 30
0.0
  0
SEQEND
  5
72
330
6F
100
AcDbEntity
  8
CSLAYER1
370
     0
  0
ENDBLK
  5
6E
330
6B
100
AcDbEntity
  8
0
100
AcDbBlockEnd
  0
BLOCK
  5
75
330
73
100
AcDbEntity
  8
0
100
AcDbBlockBegin
  2
block 9
 70
     0
 10
0.0
 20
0.0
 30
0.0
  3
block 9
  1

  0
POLYLINE
  5
77
330
73
100
AcDbEntity
  8
CSLAYER1
370
     0
100
AcDb2dPolyline
 66
     1
 10
0.0
 20
0.0
 30
0.0
  0
VERTEX
  5
78
330
77
100
AcDbEntity
  8
CSLAYER1
370
     0
100
AcDbVertex
100
AcDb2dVertex
 10
158.0194444073146
 20
165.8791666141466
 30
0.0
  0
VERTEX
  5
79
330
77
100
AcDbEntity
  8
CSLAYER1
370
     0
100
AcDbVertex
100
AcDb2dVertex
 10
158.0194444073146
 20
165.8791666141466
 30
0.0
  0
SEQEND
  5
7A
330
77
100
AcDbEntity
  8
CSLAYER1
370
     0
  0
ENDBLK
  5
76
330
73
100
AcDbEntity
  8
0
100
AcDbBlockEnd
  0
BLOCK
  5
7D
330
7B
100
AcDbEntity
  8
0
100
AcDbBlockBegin
  2
block 10
 70
     0
 10
0.0
 20
0.0
 30
0.0
  3
block 10
  1

  0
POLYLINE
  5
7F
330
7B
100
AcDbEntity
  8
CSLAYER1
 62
     4
420
    65535
370
    25
100
AcDb2dPolyline
 66
     1
 10
0.0
 20
0.0
 30
0.0
  0
VERTEX
  5
80
330
7F
100
AcDbEntity
  8
CSLAYER1
 62
     4
420
    65535
370
    25
100
AcDbVertex
100
AcDb2dVertex
 10
150.1532404073145
 20
220.7220926141469
 30
0.0
  0
VERTEX
  5
81
330
7F
100
AcDbEntity
  8
CSLAYER1
 62
     4
420
    65535
370
    25
100
AcDbVertex
100
AcDb2dVertex
 10
129.2532394073147
 20
220.7220926141469
 30
0.0
  0
SEQEND
  5
82
330
7F
100
AcDbEntity
  8
CSLAYER1
 62
     4
420
    65535
370
    25
  0
ENDBLK
  5
7E
330
7B
100
AcDbEntity
  8
0
100
AcDbBlockEnd
  0
BLOCK
  5
85
330
83
100
AcDbEntity
  8
0
100
AcDbBlockBegin
  2
block 11
 70
     0
 10
0.0
 20
0.0
 30
0.0
  3
block 11
  1

  0
MTEXT
  5
87
330
83
100
AcDbEntity
  8
CSLAYER1
 62
     4
420
    65535
100
AcDbMText
 10
129.9533022484477
 20
221.222134889491
 30
0.0
 40
3.200000026368342
 41
0.0
 46
0.0
 71
     7
 72
     1
  1
\fKozuka Gothic Pr6N R|b0|i0|c0|p34;\W1.02275;Ø5.1荌莊
 73
     1
 44
1.0
  0
ENDBLK
  5
86
330
83
100
AcDbEntity
  8
0
100
AcDbBlockEnd
  0
BLOCK
  5
8A
330
88
100
AcDbEntity
  8
0
100
AcDbBlockBegin
  2
block 12
 70
     0
 10
0.0
 20
0.0
 30
0.0
  3
block 12
  1

  0
POLYLINE
  5
8C
330
88
100
AcDbEntity
  8
CSLAYER1
 62
     4
420
    65535
370
    25
100
AcDb2dPolyline
 66
     1
 10
0.0
 20
0.0
 30
0.0
  0
VERTEX
  5
8D
330
8C
100
AcDbEntity
  8
CSLAYER1
 62
     4
420
    65535
370
    25
100
AcDbVertex
100
AcDb2dVertex
 10
157.3076924073144
 20
247.422870614147
 30
0.0
  0
VERTEX
  5
8E
330
8C
100
AcDbEntity
  8
CSLAYER1
 62
     4
420
    65535
370
    25
100
AcDbVertex
100
AcDb2dVertex
 10
150.1532404073145
 20
220.7220926141469
 30
0.0
  0
SEQEND
  5
8F
330
8C
100
AcDbEntity
  8
CSLAYER1
 62
     4
420
    65535
370
    25
  0
ENDBLK
  5
8B
330
88
100
AcDbEntity
  8
0
100
AcDbBlockEnd
  0
BLOCK
  5
92
330
90
100
AcDbEntity
  8
0
100
AcDbBlockBegin
  2
block 13
 70
     0
 10
0.0
 20
0.0
 30
0.0
  3
block 13
  1

  0
POLYLINE
  5
94
330
90
100
AcDbEntity
  8
CSLAYER1
 62
     4
420
    65535
370
    25
100
AcDb2dPolyline
 66
     1
 10
0.0
 20
0.0
 30
0.0
  0
VERTEX
  5
95
330
94
100
AcDbEntity
  8
CSLAYER1
 62
     4
420
    65535
370
    25
100
AcDbVertex
100
AcDb2dVertex
 10
157.3076924073144
 20
247.422870614147
 30
0.0
  0
VERTEX
  5
96
330
94
100
AcDbEntity
  8
CSLAYER1
 62
     4
420
    65535
370
    25
100
AcDbVertex
100
AcDb2dVertex
 10
157.3076924073144
 20
244.4228706141469
 30
0.0
  0
SEQEND
  5
97
330
94
100
AcDbEntity
  8
CSLAYER1
 62
     4
420
    65535
370
    25
  0
ENDBLK
  5
93
330
90
100
AcDbEntity
  8
0
100
AcDbBlockEnd
  0
BLOCK
  5
9A
330
98
100
AcDbEntity
  8
0
100
AcDbBlockBegin
  2
block 14
 70
     0
 10
0.0
 20
0.0
 30
0.0
  3
block 14
  1

  0
POLYLINE
  5
9C
330
98
100
AcDbEntity
  8
CSLAYER1
 62
     4
420
    65535
370
    25
100
AcDb2dPolyline
 66
     1
 10
0.0
 20
0.0
 30
0.0
  0
VERTEX
  5
9D
330
9C
100
AcDbEntity
  8
CSLAYER1
 62
     4
420
    65535
370
    25
100
AcDbVertex
100
AcDb2dVertex
 10
157.3076924073144
 20
247.422870614147
 30
0.0
  0
VERTEX
  5
9E
330
9C
100
AcDbEntity
  8
CSLAYER1
 62
     4
420
    65535
370
    25
100
AcDbVertex
100
AcDb2dVertex
 10
155.8076924073147
 20
244.8247946141469
 30
0.0
  0
SEQEND
  5
9F
330
9C
100
AcDbEntity
  8
CSLAYER1
 62
     4
420
    65535
370
    25
  0
ENDBLK
  5
9B
330
98
100
AcDbEntity
  8
0
100
AcDbBlockEnd
  0
BLOCK
  5
A2
330
A0
100
AcDbEntity
  8
0
100
AcDbBlockBegin
  2
block 15
 70
     0
 10
0.0
 20
0.0
 30
0.0
  3
block 15
  1

  0
POLYLINE
  5
A4
330
A0
100
AcDbEntity
  8
CSLAYER1
 62
     4
420
    65535
370
    25
100
AcDb2dPolyline
 66
     1
 10
0.0
 20
0.0
 30
0.0
  0
VERTEX
  5
A5
330
A4
100
AcDbEntity
  8
CSLAYER1
 62
     4
420
    65535
370
    25
100
AcDbVertex
100
AcDb2dVertex
 10
145.1653414073147
 20
261.2044546141469
 30
0.0
  0
VERTEX
  5
A6
330
A4
100
AcDbEntity
  8
CSLAYER1
 62
     4
420
    65535
370
    25
100
AcDbVertex
100
AcDb2dVertex
 10
170.8735474073145
 20
238.9538786141468
 30
0.0
  0
SEQEND
  5
A7
330
A4
100
AcDbEntity
  8
CSLAYER1
 62
     4
420
    65535
370
    25
  0
ENDBLK
  5
A3
330
A0
100
AcDbEntity
  8
0
100
AcDbBlockEnd
  0
BLOCK
  5
AA
330
A8
100
AcDbEntity
  8
0
100
AcDbBlockBegin
  2
block 16
 70
     0
 10
0.0
 20
0.0
 30
0.0
  3
block 16
  1

  0
POLYLINE
  5
AC
330
A8
100
AcDbEntity
  8
CSLAYER1
 62
     4
420
    65535
370
    25
100
AcDb2dPolyline
 66
     1
 10
0.0
 20
0.0
 30
0.0
  0
VERTEX
  5
AD
330
AC
100
AcDbEntity
  8
CSLAYER1
 62
     4
420
    65535
370
    25
100
AcDbVertex
100
AcDb2dVertex
 10
145.1653414073147
 20
261.2044546141469
 30
0.0
  0
VERTEX
  5
AE
330
AC
100
AcDbEntity
  8
CSLAYER1
 62
     4
420
    65535
370
    25
100
AcDbVertex
100
AcDb2dVertex
 10
147.8645554073147
 20
259.895163614147
 30
0.0
  0
SEQEND
  5
AF
330
AC
100
AcDbEntity
  8
CSLAYER1
 62
     4
420
    65535
370
    25
  0
ENDBLK
  5
AB
330
A8
100
AcDbEntity
  8
0
100
AcDbBlockEnd
  0
BLOCK
  5
B2
330
B0
100
AcDbEntity
  8
0
100
AcDbBlockBegin
  2
block 17
 70
     0
 10
0.0
 20
0.0
 30
0.0
  3
block 17
  1

  0
POLYLINE
  5
B4
330
B0
100
AcDbEntity
  8
CSLAYER1
 62
     4
420
    65535
370
    25
100
AcDb2dPolyline
 66
     1
 10
0.0
 20
0.0
 30
0.0
  0
VERTEX
  5
B5
330
B4
100
AcDbEntity
  8
CSLAYER1
 62
     4
420
    65535
370
    25
100
AcDbVertex
100
AcDb2dVertex
 10
145.1653414073147
 20
261.2044546141469
 30
0.0
  0
VERTEX
  5
B6
330
B4
100
AcDbEntity
  8
CSLAYER1
 62
     4
420
    65535
370
    25
100
AcDbVertex
100
AcDb2dVertex
 10
146.8482834073145
 20
258.720967614147
 30
0.0
  0
SEQEND
  5
B7
330
B4
100
AcDbEntity
  8
CSLAYER1
 62
     4
420
    65535
370
    25
  0
ENDBLK
  5
B3
330
B0
100
AcDbEntity
  8
0
100
AcDbBlockEnd
  0
BLOCK
  5
BA
330
B8
100
AcDbEntity
  8
0
100
AcDbBlockBegin
  2
block 18
 70
     0
 10
0.0
 20
0.0
 30
0.0
  3
block 18
  1

  0
POLYLINE
  5
BC
330
B8
100
AcDbEntity
  8
CSLAYER1
 62
     4
420
    65535
370
    25
100
AcDb2dPolyline
 66
     1
 10
0.0
 20
0.0
 30
0.0
  0
VERTEX
  5
BD
330
BC
100
AcDbEntity
  8
CSLAYER1
 62
     4
420
    65535
370
    25
100
AcDbVertex
100
AcDb2dVertex
 10
170.8735474073145
 20
238.9538786141468
 30
0.0
  0
VERTEX
  5
BE
330
BC
100
AcDbEntity
  8
CSLAYER1
 62
     4
420
    65535
370
    25
100
AcDbVertex
100
AcDb2dVertex
 10
168.1743334073149
 20
240.263169614147
 30
0.0
  0
SEQEND
  5
BF
330
BC
100
AcDbEntity
  8
CSLAYER1
 62
     4
420
    65535
370
    25
  0
ENDBLK
  5
BB
330
B8
100
AcDbEntity
  8
0
100
AcDbBlockEnd
  0
BLOCK
  5
C2
330
C0
100
AcDbEntity
  8
0
100
AcDbBlockBegin
  2
block 19
 70
     0
 10
0.0
 20
0.0
 30
0.0
  3
block 19
  1

  0
POLYLINE
  5
C4
330
C0
100
AcDbEntity
  8
CSLAYER1
 62
     4
420
    65535
370
    25
100
AcDb2dPolyline
 66
     1
 10
0.0
 20
0.0
 30
0.0
  0
VERTEX
  5
C5
330
C4
100
AcDbEntity
  8
CSLAYER1
 62
     4
420
    65535
370
    25
100
AcDbVertex
100
AcDb2dVertex
 10
170.8735474073145
 20
238.9538786141468
 30
0.0
  0
VERTEX
  5
C6
330
C4
100
AcDbEntity
  8
CSLAYER1
 62
     4
420
    65535
370
    25
100
AcDbVertex
100
AcDb2dVertex
 10
169.1906054073147
 20
241.4373656141467
 30
0.0
  0
SEQEND
  5
C7
330
C4
100
AcDbEntity
  8
CSLAYER1
 62
     4
420
    65535
370
    25
  0
ENDBLK
  5
C3
330
C0
100
AcDbEntity
  8
0
100
AcDbBlockEnd
  0
BLOCK
  5
CA
330
C8
100
AcDbEntity
  8
0
100
AcDbBlockBegin
  2
block 20
 70
     0
 10
0.0
 20
0.0
 30
0.0
  3
block 20
  1

  0
MTEXT
  5
CC
330
C8
100
AcDbEntity
  8
CSLAYER1
 62
     4
420
    65535
100
AcDbMText
 10
167.8194663828613
 20
220.9699969636643
 30
0.0
 40
3.200000026368342
 41
0.0
 46
0.0
 71
     7
 72
     1
  1
\fKozuka Gothic Pr6N R|b0|i0|c0|p34;\W1.15911;26
 73
     1
 44
1.0
  0
ENDBLK
  5
CB
330
C8
100
AcDbEntity
  8
0
100
AcDbBlockEnd
  0
BLOCK
  5
CF
330
CD
100
AcDbEntity
  8
0
100
AcDbBlockBegin
  2
block 21
 70
     0
 10
0.0
 20
0.0
 30
0.0
  3
block 21
  1

  0
POLYLINE
  5
D1
330
CD
100
AcDbEntity
  8
CSLAYER1
 62
     4
420
    65535
370
    25
100
AcDb2dPolyline
 66
     1
 10
0.0
 20
0.0
 30
0.0
  0
VERTEX
  5
D2
330
D1
100
AcDbEntity
  8
CSLAYER1
 62
     4
420
    65535
370
    25
100
AcDbVertex
100
AcDb2dVertex
 10
158.0194444073146
 20
226.423408614147
 30
0.0
  0
VERTEX
  5
D3
330
D1
100
AcDbEntity
  8
CSLAYER1
 62
     4
420
    65535
370
    25
100
AcDbVertex
100
AcDb2dVertex
 10
158.0194444073146
 20
219.469961614147
 30
0.0
  0
SEQEND
  5
D4
330
D1
100
AcDbEntity
  8
CSLAYER1
 62
     4
420
    65535
370
    25
  0
ENDBLK
  5
D0
330
CD
100
AcDbEntity
  8
0
100
AcDbBlockEnd
  0
BLOCK
  5
D7
330
D5
100
AcDbEntity
  8
0
100
AcDbBlockBegin
  2
block 22
 70
     0
 10
0.0
 20
0.0
 30
0.0
  3
block 22
  1

  0
POLYLINE
  5
D9
330
D5
100
AcDbEntity
  8
CSLAYER1
 62
     4
420
    65535
370
    25
100
AcDb2dPolyline
 66
     1
 10
0.0
 20
0.0
 30
0.0
  0
VERTEX
  5
DA
330
D9
100
AcDbEntity
  8
CSLAYER1
 62
     4
420
    65535
370
    25
100
AcDbVertex
100
AcDb2dVertex
 10
184.0194444073142
 20
240.9313296141468
 30
0.0
  0
VERTEX
  5
DB
330
D9
100
AcDbEntity
  8
CSLAYER1
 62
     4
420
    65535
370
    25
100
AcDbVertex
100
AcDb2dVertex
 10
184.0194444073142
 20
219.469961614147
 30
0.0
  0
SEQEND
  5
DC
330
D9
100
AcDbEntity
  8
CSLAYER1
 62
     4
420
    65535
370
    25
  0
ENDBLK
  5
D8
330
D5
100
AcDbEntity
  8
0
100
AcDbBlockEnd
  0
BLOCK
  5
DF
330
DD
100
AcDbEntity
  8
0
100
AcDbBlockBegin
  2
block 23
 70
     0
 10
0.0
 20
0.0
 30
0.0
  3
block 23
  1

  0
POLYLINE
  5
E1
330
DD
100
AcDbEntity
  8
CSLAYER1
 62
     4
420
    65535
370
    25
100
AcDb2dPolyline
 66
     1
 10
0.0
 20
0.0
 30
0.0
  0
VERTEX
  5
E2
330
E1
100
AcDbEntity
  8
CSLAYER1
 62
     4
420
    65535
370
    25
100
AcDbVertex
100
AcDb2dVertex
 10
158.0194444073146
 20
220.4699616141467
 30
0.0
  0
VERTEX
  5
E3
330
E1
100
AcDbEntity
  8
CSLAYER1
 62
     4
420
    65535
370
    25
100
AcDbVertex
100
AcDb2dVertex
 10
184.0194444073142
 20
220.4699616141467
 30
0.0
  0
SEQEND
  5
E4
330
E1
100
AcDbEntity
  8
CSLAYER1
 62
     4
420
    65535
370
    25
  0
ENDBLK
  5
E0
330
DD
100
AcDbEntity
  8
0
100
AcDbBlockEnd
  0
BLOCK
  5
E7
330
E5
100
AcDbEntity
  8
0
100
AcDbBlockBegin
  2
block 24
 70
     0
 10
0.0
 20
0.0
 30
0.0
  3
block 24
  1

  0
POLYLINE
  5
E9
330
E5
100
AcDbEntity
  8
CSLAYER1
 62
     4
420
    65535
370
    25
100
AcDb2dPolyline
 66
     1
 10
0.0
 20
0.0
 30
0.0
  0
VERTEX
  5
EA
330
E9
100
AcDbEntity
  8
CSLAYER1
 62
     4
420
    65535
370
    25
100
AcDbVertex
100
AcDb2dVertex
 10
158.0194444073146
 20
220.4699616141467
 30
0.0
  0
VERTEX
  5
EB
330
E9
100
AcDbEntity
  8
CSLAYER1
 62
     4
420
    65535
370
    25
100
AcDbVertex
100
AcDb2dVertex
 10
160.9172214073143
 20
221.2464186141468
 30
0.0
  0
SEQEND
  5
EC
330
E9
100
AcDbEntity
  8
CSLAYER1
 62
     4
420
    65535
370
    25
  0
ENDBLK
  5
E8
330
E5
100
AcDbEntity
  8
0
100
AcDbBlockEnd
  0
BLOCK
  5
EF
330
ED
100
AcDbEntity
  8
0
100
AcDbBlockBegin
  2
block 25
 70
     0
 10
0.0
 20
0.0
 30
0.0
  3
block 25
  1

  0
POLYLINE
  5
F1
330
ED
100
AcDbEntity
  8
CSLAYER1
 62
     4
420
    65535
370
    25
100
AcDb2dPolyline
 66
     1
 10
0.0
 20
0.0
 30
0.0
  0
VERTEX
  5
F2
330
F1
100
AcDbEntity
  8
CSLAYER1
 62
     4
420
    65535
370
    25
100
AcDbVertex
100
AcDb2dVertex
 10
158.0194444073146
 20
220.4699616141467
 30
0.0
  0
VERTEX
  5
F3
330
F1
100
AcDbEntity
  8
CSLAYER1
 62
     4
420
    65535
370
    25
100
AcDbVertex
100
AcDb2dVertex
 10
160.9172214073143
 20
219.693504614147
 30
0.0
  0
SEQEND
  5
F4
330
F1
100
AcDbEntity
  8
CSLAYER1
 62
     4
420
    65535
370
    25
  0
ENDBLK
  5
F0
330
ED
100
AcDbEntity
  8
0
100
AcDbBlockEnd
  0
BLOCK
  5
F7
330
F5
100
AcDbEntity
  8
0
100
AcDbBlockBegin
  2
block 26
 70
     0
 10
0.0
 20
0.0
 30
0.0
  3
block 26
  1

  0
POLYLINE
  5
F9
330
F5
100
AcDbEntity
  8
CSLAYER1
 62
     4
420
    65535
370
    25
100
AcDb2dPolyline
 66
     1
 10
0.0
 20
0.0
 30
0.0
  0
VERTEX
  5
FA
330
F9
100
AcDbEntity
  8
CSLAYER1
 62
     4
420
    65535
370
    25
100
AcDbVertex
100
AcDb2dVertex
 10
184.0194444073142
 20
220.4699616141467
 30
0.0
  0
VERTEX
  5
FB
330
F9
100
AcDbEntity
  8
CSLAYER1
 62
     4
420
    65535
370
    25
100
AcDbVertex
100
AcDb2dVertex
 10
181.1216674073146
 20
221.2464186141468
 30
0.0
  0
SEQEND
  5
FC
330
F9
100
AcDbEntity
  8
CSLAYER1
 62
     4
420
    65535
370
    25
  0
ENDBLK
  5
F8
330
F5
100
AcDbEntity
  8
0
100
AcDbBlockEnd
  0
BLOCK
  5
FF
330
FD
100
AcDbEntity
  8
0
100
AcDbBlockBegin
  2
block 27
 70
     0
 10
0.0
 20
0.0
 30
0.0
  3
block 27
  1

  0
POLYLINE
  5
101
330
FD
100
AcDbEntity
  8
CSLAYER1
 62
     4
420
    65535
370
    25
100
AcDb2dPolyline
 66
     1
 10
0.0
 20
0.0
 30
0.0
  0
VERTEX
  5
102
330
101
100
AcDbEntity
  8
CSLAYER1
 62
     4
420
    65535
370
    25
100
AcDbVertex
100
AcDb2dVertex
 10
184.0194444073142
 20
220.4699616141467
 30
0.0
  0
VERTEX
  5
103
330
101
100
AcDbEntity
  8
CSLAYER1
 62
     4
420
    65535
370
    25
100
AcDbVertex
100
AcDb2dVertex
 10
181.1216674073146
 20
219.693504614147
 30
0.0
  0
SEQEND
  5
104
330
101
100
AcDbEntity
  8
CSLAYER1
 62
     4
420
    65535
370
    25
  0
ENDBLK
  5
100
330
FD
100
AcDbEntity
  8
0
100
AcDbBlockEnd
  0
BLOCK
  5
107
330
105
100
AcDbEntity
  8
0
100
AcDbBlockBegin
  2
block 28
 70
     0
 10
0.0
 20
0.0
 30
0.0
  3
block 28
  1

  0
POLYLINE
  5
109
330
105
100
AcDbEntity
  8
CSLAYER1
 62
     4
420
    65535
370
    25
100
AcDb2dPolyline
 66
     1
 10
0.0
 20
0.0
 30
0.0
  0
VERTEX
  5
10A
330
109
100
AcDbEntity
  8
CSLAYER1
 62
     4
420
    65535
370
    25
100
AcDbVertex
100
AcDb2dVertex
 10
184.0194444073142
 20
251.5791666141467
 30
0.0
  0
VERTEX
  5
10B
330
109
100
AcDbEntity
  8
CSLAYER1
 62
     4
420
    65535
370
    25
100
AcDbVertex
100
AcDb2dVertex
 10
192.3551304073143
 20
220.4699616141467
 30
0.0
  0
SEQEND
  5
10C
330
109
100
AcDbEntity
  8
CSLAYER1
 62
     4
420
    65535
370
    25
  0
ENDBLK
  5
108
330
105
100
AcDbEntity
  8
0
100
AcDbBlockEnd
  0
BLOCK
  5
10F
330
10D
100
AcDbEntity
  8
0
100
AcDbBlockBegin
  2
block 29
 70
     0
 10
0.0
 20
0.0
 30
0.0
  3
block 29
  1

  0
POLYLINE
  5
111
330
10D
100
AcDbEntity
  8
CSLAYER1
 62
     4
420
    65535
370
    25
100
AcDb2dPolyline
 66
     1
 10
0.0
 20
0.0
 30
0.0
  0
VERTEX
  5
112
330
111
100
AcDbEntity
  8
CSLAYER1
 62
     4
420
    65535
370
    25
100
AcDbVertex
100
AcDb2dVertex
 10
184.0194444073142
 20
251.5791666141467
 30
0.0
  0
VERTEX
  5
113
330
111
100
AcDbEntity
  8
CSLAYER1
 62
     4
420
    65535
370
    25
100
AcDbVertex
100
AcDb2dVertex
 10
185.5194444073146
 20
248.981090614147
 30
0.0
  0
SEQEND
  5
114
330
111
100
AcDbEntity
  8
CSLAYER1
 62
     4
420
    65535
370
    25
  0
ENDBLK
  5
110
330
10D
100
AcDbEntity
  8
0
100
AcDbBlockEnd
  0
BLOCK
  5
117
330
115
100
AcDbEntity
  8
0
100
AcDbBlockBegin
  2
block 30
 70
     0
 10
0.0
 20
0.0
 30
0.0
  3
block 30
  1

  0
POLYLINE
  5
119
330
115
100
AcDbEntity
  8
CSLAYER1
 62
     4
420
    65535
370
    25
100
AcDb2dPolyline
 66
     1
 10
0.0
 20
0.0
 30
0.0
  0
VERTEX
  5
11A
330
119
100
AcDbEntity
  8
CSLAYER1
 62
     4
420
    65535
370
    25
100
AcDbVertex
100
AcDb2dVertex
 10
184.0194444073142
 20
251.5791666141467
 30
0.0
  0
VERTEX
  5
11B
330
119
100
AcDbEntity
  8
CSLAYER1
 62
     4
420
    65535
370
    25
100
AcDbVertex
100
AcDb2dVertex
 10
184.0194444073142
 20
248.579166614147
 30
0.0
  0
SEQEND
  5
11C
330
119
100
AcDbEntity
  8
CSLAYER1
 62
     4
420
    65535
370
    25
  0
ENDBLK
  5
118
330
115
100
AcDbEntity
  8
0
100
AcDbBlockEnd
  0
BLOCK
  5
11F
330
11D
100
AcDbEntity
  8
0
100
AcDbBlockBegin
  2
block 31
 70
     0
 10
0.0
 20
0.0
 30
0.0
  3
block 31
  1

  0
POLYLINE
  5
121
330
11D
100
AcDbEntity
  8
CSLAYER1
 62
     4
420
    65535
370
    25
100
AcDb2dPolyline
 66
     1
 10
0.0
 20
0.0
 30
0.0
  0
VERTEX
  5
122
330
121
100
AcDbEntity
  8
CSLAYER1
 62
     4
420
    65535
370
    25
100
AcDbVertex
100
AcDb2dVertex
 10
192.3551304073143
 20
220.4699616141467
 30
0.0
  0
VERTEX
  5
123
330
121
100
AcDbEntity
  8
CSLAYER1
 62
     4
420
    65535
370
    25
100
AcDbVertex
100
AcDb2dVertex
 10
216.4051314073147
 20
220.4699616141467
 30
0.0
  0
SEQEND
  5
124
330
121
100
AcDbEntity
  8
CSLAYER1
 62
     4
420
    65535
370
    25
  0
ENDBLK
  5
120
330
11D
100
AcDbEntity
  8
0
100
AcDbBlockEnd
  0
BLOCK
  5
127
330
125
100
AcDbEntity
  8
0
100
AcDbBlockBegin
  2
block 32
 70
     0
 10
0.0
 20
0.0
 30
0.0
  3
block 32
  1

  0
MTEXT
  5
129
330
125
100
AcDbEntity
  8
CSLAYER1
 62
     4
420
    65535
100
AcDbMText
 10
193.3552031386302
 20
220.9699969636643
 30
0.0
 40
3.200000026368342
 41
0.0
 46
0.0
 71
     7
 72
     1
  1
\fKozuka Gothic Pr6N R|b0|i0|c0|p34;\W1.01422;Ø9荌莊遛荔艓
 73
     1
 44
1.0
  0
ENDBLK
  5
128
330
125
100
AcDbEntity
  8
0
100
AcDbBlockEnd
  0
BLOCK
  5
12C
330
12A
100
AcDbEntity
  8
0
100
AcDbBlockBegin
  2
block 33
 70
     0
 10
0.0
 20
0.0
 30
0.0
  3
block 33
  1

  0
POLYLINE
  5
12E
330
12A
100
AcDbEntity
  8
CSLAYER1
 62
     4
420
    65535
370
    25
100
AcDb2dPolyline
 66
     1
 10
0.0
 20
0.0
 30
0.0
  0
VERTEX
  5
12F
330
12E
100
AcDbEntity
  8
CSLAYER1
 62
     4
420
    65535
370
    25
100
AcDbVertex
100
AcDb2dVertex
 10
232.0194444073146
 20
250.079166614147
 30
0.0
  0
VERTEX
  5
130
330
12E
100
AcDbEntity
  8
CSLAYER1
 62
     4
420
    65535
370
    25
100
AcDbVertex
100
AcDb2dVertex
 10
239.9532074073144
 20
220.4699616141467
 30
0.0
  0
SEQEND
  5
131
330
12E
100
AcDbEntity
  8
CSLAYER1
 62
     4
420
    65535
370
    25
  0
ENDBLK
  5
12D
330
12A
100
AcDbEntity
  8
0
100
AcDbBlockEnd
  0
BLOCK
  5
134
330
132
100
AcDbEntity
  8
0
100
AcDbBlockBegin
  2
block 34
 70
     0
 10
0.0
 20
0.0
 30
0.0
  3
block 34
  1

  0
SPLINE
  5
136
330
132
100
AcDbEntity
  8
CSLAYER1
 62
     4
420
    65535
370
    25
100
AcDbSpline
210
0.0
220
0.0
230
1.0
 70
    11
 71
     3
 72
    20
 73
    16
 74
     0
 42
0.0000000001
 43
0.0000000001
 12
1.0
 22
0.0
 32
0.0
 13
1.0
 23
0.0
 33
0.0
 40
0.0
 40
0.0
 40
0.0
 40
0.0
 40
1.0
 40
1.0
 40
1.0
 40
2.0
 40
2.0
 40
2.0
 40
3.0
 40
3.0
 40
3.0
 40
4.0
 40
4.0
 40
4.0
 40
5.0
 40
5.0
 40
5.0
 40
5.0
 10
231.7194444073143
 20
250.079166614147
 30
0.0
 10
231.7194444073143
 20
250.244852039096
 30
0.0
 10
231.853758982365
 20
250.3791666141467
 30
0.0
 10
232.0194444073146
 20
250.3791666141467
 30
0.0
 10
232.1851298322636
 20
250.3791666141467
 30
0.0
 10
232.3194444073143
 20
250.244852039096
 30
0.0
 10
232.3194444073143
 20
250.079166614147
 30
0.0
 10
232.3194444073143
 20
249.9134811891977
 30
0.0
 10
232.1851298322636
 20
249.7791666141467
 30
0.0
 10
232.0194444073146
 20
249.7791666141467
 30
0.0
 10
231.853758982365
 20
249.7791666141467
 30
0.0
 10
231.7194444073143
 20
249.9134811891977
 30
0.0
 10
231.7194444073143
 20
250.079166614147
 30
0.0
 10
231.7194444073143
 20
250.079166614147
 30
0.0
 10
231.7194444073143
 20
250.079166614147
 30
0.0
 10
231.7194444073143
 20
250.079166614147
 30
0.0
  0
ENDBLK
  5
135
330
132
100
AcDbEntity
  8
0
100
AcDbBlockEnd
  0
BLOCK
  5
139
330
137
100
AcDbEntity
  8
0
100
AcDbBlockBegin
  2
block 35
 70
     0
 10
0.0
 20
0.0
 30
0.0
  3
block 35
  1

  0
SPLINE
  5
13B
330
137
100
AcDbEntity
  8
CSLAYER1
 62
     4
420
    65535
370
    25
100
AcDbSpline
210
0.0
220
0.0
230
1.0
 70
    11
 71
     3
 72
    20
 73
    16
 74
     0
 42
0.0000000001
 43
0.0000000001
 12
1.0
 22
0.0
 32
0.0
 13
1.0
 23
0.0
 33
0.0
 40
0.0
 40
0.0
 40
0.0
 40
0.0
 40
1.0
 40
1.0
 40
1.0
 40
2.0
 40
2.0
 40
2.0
 40
3.0
 40
3.0
 40
3.0
 40
4.0
 40
4.0
 40
4.0
 40
5.0
 40
5.0
 40
5.0
 40
5.0
 10
231.8694444073148
 20
250.079166614147
 30
0.0
 10
231.8694444073148
 20
250.1620093266215
 30
0.0
 10
231.9366016948399
 20
250.2291666141469
 30
0.0
 10
232.0194444073146
 20
250.2291666141469
 30
0.0
 10
232.1022871197895
 20
250.2291666141469
 30
0.0
 10
232.1694444073145
 20
250.1620093266215
 30
0.0
 10
232.1694444073145
 20
250.079166614147
 30
0.0
 10
232.1694444073145
 20
249.9963239016722
 30
0.0
 10
232.1022871197895
 20
249.9291666141469
 30
0.0
 10
232.0194444073146
 20
249.9291666141469
 30
0.0
 10
231.9366016948399
 20
249.9291666141469
 30
0.0
 10
231.8694444073148
 20
249.9963239016722
 30
0.0
 10
231.8694444073148
 20
250.079166614147
 30
0.0
 10
231.8694444073148
 20
250.079166614147
 30
0.0
 10
231.8694444073148
 20
250.079166614147
 30
0.0
 10
231.8694444073148
 20
250.079166614147
 30
0.0
  0
ENDBLK
  5
13A
330
137
100
AcDbEntity
  8
0
100
AcDbBlockEnd
  0
BLOCK
  5
13E
330
13C
100
AcDbEntity
  8
0
100
AcDbBlockBegin
  2
block 36
 70
     0
 10
0.0
 20
0.0
 30
0.0
  3
block 36
  1

  0
POLYLINE
  5
140
330
13C
100
AcDbEntity
  8
CSLAYER1
 62
     4
420
    65535
370
    25
100
AcDb2dPolyline
 66
     1
 10
0.0
 20
0.0
 30
0.0
  0
VERTEX
  5
141
330
140
100
AcDbEntity
  8
CSLAYER1
 62
     4
420
    65535
370
    25
100
AcDbVertex
100
AcDb2dVertex
 10
239.9532074073144
 20
220.4699616141467
 30
0.0
  0
VERTEX
  5
142
330
140
100
AcDbEntity
  8
CSLAYER1
 62
     4
420
    65535
370
    25
100
AcDbVertex
100
AcDb2dVertex
 10
257.9532074073144
 20
220.4699616141467
 30
0.0
  0
SEQEND
  5
143
330
140
100
AcDbEntity
  8
CSLAYER1
 62
     4
420
    65535
370
    25
  0
ENDBLK
  5
13F
330
13C
100
AcDbEntity
  8
0
100
AcDbBlockEnd
  0
BLOCK
  5
146
330
144
100
AcDbEntity
  8
0
100
AcDbBlockBegin
  2
block 37
 70
     0
 10
0.0
 20
0.0
 30
0.0
  3
block 37
  1

  0
MTEXT
  5
148
330
144
100
AcDbEntity
  8
CSLAYER1
 62
     4
420
    65535
100
AcDbMText
 10
240.9532452545518
 20
220.9699969636643
 30
0.0
 40
3.200000026368342
 41
0.0
 46
0.0
 71
     7
 72
     1
  1
\fKozuka Gothic Pr6N R|b0|i0|c0|p34;\W1.03492;荘荧荢荰腛
 73
     1
 44
1.0
  0
ENDBLK
  5
147
330
144
100
AcDbEntity
  8
0
100
AcDbBlockEnd
  0
BLOCK
  5
14B
330
149
100
AcDbEntity
  8
0
100
AcDbBlockBegin
  2
block 38
 70
     0
 10
0.0
 20
0.0
 30
0.0
  3
block 38
  1

  0
MTEXT
  5
14D
330
149
100
AcDbEntity
  8
CSLAYER1
 62
     4
420
    65535
100
AcDbMText
 10
257.3859793579181
 20
246.879067871343
 30
0.0
 40
3.200000026368342
 41
0.0
 46
0.0
 71
     7
 72
     1
  1
\fKozuka Gothic Pr6N R|b0|i0|c0|p34;\W1.15911;20
 11
6.123233995736766E-17
 21
1.0
 31
0.0
 73
     1
 44
1.0
  0
ENDBLK
  5
14C
330
149
100
AcDbEntity
  8
0
100
AcDbBlockEnd
  0
BLOCK
  5
150
330
14E
100
AcDbEntity
  8
0
100
AcDbBlockBegin
  2
block 39
 70
     0
 10
0.0
 20
0.0
 30
0.0
  3
block 39
  1

  0
POLYLINE
  5
152
330
14E
100
AcDbEntity
  8
CSLAYER1
 62
     4
420
    65535
370
    25
100
AcDb2dPolyline
 66
     1
 10
0.0
 20
0.0
 30
0.0
  0
VERTEX
  5
153
330
152
100
AcDbEntity
  8
CSLAYER1
 62
     4
420
    65535
370
    25
100
AcDbVertex
100
AcDb2dVertex
 10
243.0194444073144
 20
240.079166614147
 30
0.0
  0
VERTEX
  5
154
330
152
100
AcDbEntity
  8
CSLAYER1
 62
     4
420
    65535
370
    25
100
AcDbVertex
100
AcDb2dVertex
 10
258.8860154073147
 20
240.079166614147
 30
0.0
  0
SEQEND
  5
155
330
152
100
AcDbEntity
  8
CSLAYER1
 62
     4
420
    65535
370
    25
  0
ENDBLK
  5
151
330
14E
100
AcDbEntity
  8
0
100
AcDbBlockEnd
  0
BLOCK
  5
158
330
156
100
AcDbEntity
  8
0
100
AcDbBlockBegin
  2
block 40
 70
     0
 10
0.0
 20
0.0
 30
0.0
  3
block 40
  1

  0
POLYLINE
  5
15A
330
156
100
AcDbEntity
  8
CSLAYER1
 62
     4
420
    65535
370
    25
100
AcDb2dPolyline
 66
     1
 10
0.0
 20
0.0
 30
0.0
  0
VERTEX
  5
15B
330
15A
100
AcDbEntity
  8
CSLAYER1
 62
     4
420
    65535
370
    25
100
AcDbVertex
100
AcDb2dVertex
 10
243.0194444073144
 20
260.0791666141467
 30
0.0
  0
VERTEX
  5
15C
330
15A
100
AcDbEntity
  8
CSLAYER1
 62
     4
420
    65535
370
    25
100
AcDbVertex
100
AcDb2dVertex
 10
258.8860154073147
 20
260.0791666141467
 30
0.0
  0
SEQEND
  5
15D
330
15A
100
AcDbEntity
  8
CSLAYER1
 62
     4
420
    65535
370
    25
  0
ENDBLK
  5
159
330
156
100
AcDbEntity
  8
0
100
AcDbBlockEnd
  0
BLOCK
  5
160
330
15E
100
AcDbEntity
  8
0
100
AcDbBlockBegin
  2
block 41
 70
     0
 10
0.0
 20
0.0
 30
0.0
  3
block 41
  1

  0
POLYLINE
  5
162
330
15E
100
AcDbEntity
  8
CSLAYER1
 62
     4
420
    65535
370
    25
100
AcDb2dPolyline
 66
     1
 10
0.0
 20
0.0
 30
0.0
  0
VERTEX
  5
163
330
162
100
AcDbEntity
  8
CSLAYER1
 62
     4
420
    65535
370
    25
100
AcDbVertex
100
AcDb2dVertex
 10
257.8860154073147
 20
240.079166614147
 30
0.0
  0
VERTEX
  5
164
330
162
100
AcDbEntity
  8
CSLAYER1
 62
     4
420
    65535
370
    25
100
AcDbVertex
100
AcDb2dVertex
 10
257.8860154073147
 20
260.0791666141467
 30
0.0
  0
SEQEND
  5
165
330
162
100
AcDbEntity
  8
CSLAYER1
 62
     4
420
    65535
370
    25
  0
ENDBLK
  5
161
330
15E
100
AcDbEntity
  8
0
100
AcDbBlockEnd
  0
BLOCK
  5
168
330
166
100
AcDbEntity
  8
0
100
AcDbBlockBegin
  2
block 42
 70
     0
 10
0.0
 20
0.0
 30
0.0
  3
block 42
  1

  0
POLYLINE
  5
16A
330
166
100
AcDbEntity
  8
CSLAYER1
 62
     4
420
    65535
370
    25
100
AcDb2dPolyline
 66
     1
 10
0.0
 20
0.0
 30
0.0
  0
VERTEX
  5
16B
330
16A
100
AcDbEntity
  8
CSLAYER1
 62
     4
420
    65535
370
    25
100
AcDbVertex
100
AcDb2dVertex
 10
257.8860154073147
 20
240.079166614147
 30
0.0
  0
VERTEX
  5
16C
330
16A
100
AcDbEntity
  8
CSLAYER1
 62
     4
420
    65535
370
    25
100
AcDbVertex
100
AcDb2dVertex
 10
257.1095584073146
 20
242.976943614147
 30
0.0
  0
SEQEND
  5
16D
330
16A
100
AcDbEntity
  8
CSLAYER1
 62
     4
420
    65535
370
    25
  0
ENDBLK
  5
169
330
166
100
AcDbEntity
  8
0
100
AcDbBlockEnd
  0
BLOCK
  5
170
330
16E
100
AcDbEntity
  8
0
100
AcDbBlockBegin
  2
block 43
 70
     0
 10
0.0
 20
0.0
 30
0.0
  3
block 43
  1

  0
POLYLINE
  5
172
330
16E
100
AcDbEntity
  8
CSLAYER1
 62
     4
420
    65535
370
    25
100
AcDb2dPolyline
 66
     1
 10
0.0
 20
0.0
 30
0.0
  0
VERTEX
  5
173
330
172
100
AcDbEntity
  8
CSLAYER1
 62
     4
420
    65535
370
    25
100
AcDbVertex
100
AcDb2dVertex
 10
257.8860154073147
 20
240.079166614147
 30
0.0
  0
VERTEX
  5
174
330
172
100
AcDbEntity
  8
CSLAYER1
 62
     4
420
    65535
370
    25
100
AcDbVertex
100
AcDb2dVertex
 10
258.6624734073148
 20
242.976943614147
 30
0.0
  0
SEQEND
  5
175
330
172
100
AcDbEntity
  8
CSLAYER1
 62
     4
420
    65535
370
    25
  0
ENDBLK
  5
171
330
16E
100
AcDbEntity
  8
0
100
AcDbBlockEnd
  0
BLOCK
  5
178
330
176
100
AcDbEntity
  8
0
100
AcDbBlockBegin
  2
block 44
 70
     0
 10
0.0
 20
0.0
 30
0.0
  3
block 44
  1

  0
POLYLINE
  5
17A
330
176
100
AcDbEntity
  8
CSLAYER1
 62
     4
420
    65535
370
    25
100
AcDb2dPolyline
 66
     1
 10
0.0
 20
0.0
 30
0.0
  0
VERTEX
  5
17B
330
17A
100
AcDbEntity
  8
CSLAYER1
 62
     4
420
    65535
370
    25
100
AcDbVertex
100
AcDb2dVertex
 10
257.8860154073147
 20
260.0791666141467
 30
0.0
  0
VERTEX
  5
17C
330
17A
100
AcDbEntity
  8
CSLAYER1
 62
     4
420
    65535
370
    25
100
AcDbVertex
100
AcDb2dVertex
 10
257.1095584073146
 20
257.1813896141471
 30
0.0
  0
SEQEND
  5
17D
330
17A
100
AcDbEntity
  8
CSLAYER1
 62
     4
420
    65535
370
    25
  0
ENDBLK
  5
179
330
176
100
AcDbEntity
  8
0
100
AcDbBlockEnd
  0
BLOCK
  5
180
330
17E
100
AcDbEntity
  8
0
100
AcDbBlockBegin
  2
block 45
 70
     0
 10
0.0
 20
0.0
 30
0.0
  3
block 45
  1

  0
POLYLINE
  5
182
330
17E
100
AcDbEntity
  8
CSLAYER1
 62
     4
420
    65535
370
    25
100
AcDb2dPolyline
 66
     1
 10
0.0
 20
0.0
 30
0.0
  0
VERTEX
  5
183
330
182
100
AcDbEntity
  8
CSLAYER1
 62
     4
420
    65535
370
    25
100
AcDbVertex
100
AcDb2dVertex
 10
257.8860154073147
 20
260.0791666141467
 30
0.0
  0
VERTEX
  5
184
330
182
100
AcDbEntity
  8
CSLAYER1
 62
     4
420
    65535
370
    25
100
AcDbVertex
100
AcDb2dVertex
 10
258.6624734073148
 20
257.1813896141471
 30
0.0
  0
SEQEND
  5
185
330
182
100
AcDbEntity
  8
CSLAYER1
 62
     4
420
    65535
370
    25
  0
ENDBLK
  5
181
330
17E
100
AcDbEntity
  8
0
100
AcDbBlockEnd
  0
BLOCK
  5
188
330
186
100
AcDbEntity
  8
0
100
AcDbBlockBegin
  2
block 46
 70
     0
 10
0.0
 20
0.0
 30
0.0
  3
block 46
  1

  0
MTEXT
  5
18A
330
186
100
AcDbEntity
  8
CSLAYER1
 62
     4
420
    65535
100
AcDbMText
 10
86.91716379039147
 20
238.8792116450443
 30
0.0
 40
3.200000026368342
 41
0.0
 46
0.0
 71
     7
 72
     1
  1
\fKozuka Gothic Pr6N R|b0|i0|c0|p34;\W1.01422;31.5~33
 11
6.123233995736766E-17
 21
1.0
 31
0.0
 73
     1
 44
1.0
  0
ENDBLK
  5
189
330
186
100
AcDbEntity
  8
0
100
AcDbBlockEnd
  0
BLOCK
  5
18D
330
18B
100
AcDbEntity
  8
0
100
AcDbBlockBegin
  2
block 47
 70
     0
 10
0.0
 20
0.0
 30
0.0
  3
block 47
  1

  0
POLYLINE
  5
18F
330
18B
100
AcDbEntity
  8
CSLAYER1
 62
     4
420
    65535
370
    25
100
AcDb2dPolyline
 66
     1
 10
0.0
 20
0.0
 30
0.0
  0
VERTEX
  5
190
330
18F
100
AcDbEntity
  8
CSLAYER1
 62
     4
420
    65535
370
    25
100
AcDbVertex
100
AcDb2dVertex
 10
97.0194444073147
 20
234.0791666141468
 30
0.0
  0
VERTEX
  5
191
330
18F
100
AcDbEntity
  8
CSLAYER1
 62
     4
420
    65535
370
    25
100
AcDbVertex
100
AcDb2dVertex
 10
86.4172124073145
 20
234.0791666141468
 30
0.0
  0
SEQEND
  5
192
330
18F
100
AcDbEntity
  8
CSLAYER1
 62
     4
420
    65535
370
    25
  0
ENDBLK
  5
18E
330
18B
100
AcDbEntity
  8
0
100
AcDbBlockEnd
  0
BLOCK
  5
195
330
193
100
AcDbEntity
  8
0
100
AcDbBlockBegin
  2
block 48
 70
     0
 10
0.0
 20
0.0
 30
0.0
  3
block 48
  1

  0
POLYLINE
  5
197
330
193
100
AcDbEntity
  8
CSLAYER1
 62
     4
420
    65535
370
    25
100
AcDb2dPolyline
 66
     1
 10
0.0
 20
0.0
 30
0.0
  0
VERTEX
  5
198
330
197
100
AcDbEntity
  8
CSLAYER1
 62
     4
420
    65535
370
    25
100
AcDbVertex
100
AcDb2dVertex
 10
97.0194444073147
 20
266.0791666141469
 30
0.0
  0
VERTEX
  5
199
330
197
100
AcDbEntity
  8
CSLAYER1
 62
     4
420
    65535
370
    25
100
AcDbVertex
100
AcDb2dVertex
 10
86.4172124073145
 20
266.0791666141469
 30
0.0
  0
SEQEND
  5
19A
330
197
100
AcDbEntity
  8
CSLAYER1
 62
     4
420
    65535
370
    25
  0
ENDBLK
  5
196
330
193
100
AcDbEntity
  8
0
100
AcDbBlockEnd
  0
BLOCK
  5
19D
330
19B
100
AcDbEntity
  8
0
100
AcDbBlockBegin
  2
block 49
 70
     0
 10
0.0
 20
0.0
 30
0.0
  3
block 49
  1

  0
POLYLINE
  5
19F
330
19B
100
AcDbEntity
  8
CSLAYER1
 62
     4
420
    65535
370
    25
100
AcDb2dPolyline
 66
     1
 10
0.0
 20
0.0
 30
0.0
  0
VERTEX
  5
1A0
330
19F
100
AcDbEntity
  8
CSLAYER1
 62
     4
420
    65535
370
    25
100
AcDbVertex
100
AcDb2dVertex
 10
87.41721240731452
 20
234.0791666141468
 30
0.0
  0
VERTEX
  5
1A1
330
19F
100
AcDbEntity
  8
CSLAYER1
 62
     4
420
    65535
370
    25
100
AcDbVertex
100
AcDb2dVertex
 10
87.41721240731452
 20
266.0791666141469
 30
0.0
  0
SEQEND
  5
1A2
330
19F
100
AcDbEntity
  8
CSLAYER1
 62
     4
420
    65535
370
    25
  0
ENDBLK
  5
19E
330
19B
100
AcDbEntity
  8
0
100
AcDbBlockEnd
  0
BLOCK
  5
1A5
330
1A3
100
AcDbEntity
  8
0
100
AcDbBlockBegin
  2
block 50
 70
     0
 10
0.0
 20
0.0
 30
0.0
  3
block 50
  1

  0
POLYLINE
  5
1A7
330
1A3
100
AcDbEntity
  8
CSLAYER1
 62
     4
420
    65535
370
    25
100
AcDb2dPolyline
 66
     1
 10
0.0
 20
0.0
 30
0.0
  0
VERTEX
  5
1A8
330
1A7
100
AcDbEntity
  8
CSLAYER1
 62
     4
420
    65535
370
    25
100
AcDbVertex
100
AcDb2dVertex
 10
87.41721240731452
 20
234.0791666141468
 30
0.0
  0
VERTEX
  5
1A9
330
1A7
100
AcDbEntity
  8
CSLAYER1
 62
     4
420
    65535
370
    25
100
AcDbVertex
100
AcDb2dVertex
 10
86.64075540731444
 20
236.9769436141468
 30
0.0
  0
SEQEND
  5
1AA
330
1A7
100
AcDbEntity
  8
CSLAYER1
 62
     4
420
    65535
370
    25
  0
ENDBLK
  5
1A6
330
1A3
100
AcDbEntity
  8
0
100
AcDbBlockEnd
  0
BLOCK
  5
1AD
330
1AB
100
AcDbEntity
  8
0
100
AcDbBlockBegin
  2
block 51
 70
     0
 10
0.0
 20
0.0
 30
0.0
  3
block 51
  1

  0
POLYLINE
  5
1AF
330
1AB
100
AcDbEntity
  8
CSLAYER1
 62
     4
420
    65535
370
    25
100
AcDb2dPolyline
 66
     1
 10
0.0
 20
0.0
 30
0.0
  0
VERTEX
  5
1B0
330
1AF
100
AcDbEntity
  8
CSLAYER1
 62
     4
420
    65535
370
    25
100
AcDbVertex
100
AcDb2dVertex
 10
87.41721240731452
 20
234.0791666141468
 30
0.0
  0
VERTEX
  5
1B1
330
1AF
100
AcDbEntity
  8
CSLAYER1
 62
     4
420
    65535
370
    25
100
AcDbVertex
100
AcDb2dVertex
 10
88.19366940731462
 20
236.9769436141468
 30
0.0
  0
SEQEND
  5
1B2
330
1AF
100
AcDbEntity
  8
CSLAYER1
 62
     4
420
    65535
370
    25
  0
ENDBLK
  5
1AE
330
1AB
100
AcDbEntity
  8
0
100
AcDbBlockEnd
  0
BLOCK
  5
1B5
330
1B3
100
AcDbEntity
  8
0
100
AcDbBlockBegin
  2
block 52
 70
     0
 10
0.0
 20
0.0
 30
0.0
  3
block 52
  1

  0
POLYLINE
  5
1B7
330
1B3
100
AcDbEntity
  8
CSLAYER1
 62
     4
420
    65535
370
    25
100
AcDb2dPolyline
 66
     1
 10
0.0
 20
0.0
 30
0.0
  0
VERTEX
  5
1B8
330
1B7
100
AcDbEntity
  8
CSLAYER1
 62
     4
420
    65535
370
    25
100
AcDbVertex
100
AcDb2dVertex
 10
87.41721240731452
 20
266.0791666141469
 30
0.0
  0
VERTEX
  5
1B9
330
1B7
100
AcDbEntity
  8
CSLAYER1
 62
     4
420
    65535
370
    25
100
AcDbVertex
100
AcDb2dVertex
 10
86.64075540731444
 20
263.181389614147
 30
0.0
  0
SEQEND
  5
1BA
330
1B7
100
AcDbEntity
  8
CSLAYER1
 62
     4
420
    65535
370
    25
  0
ENDBLK
  5
1B6
330
1B3
100
AcDbEntity
  8
0
100
AcDbBlockEnd
  0
BLOCK
  5
1BD
330
1BB
100
AcDbEntity
  8
0
100
AcDbBlockBegin
  2
block 53
 70
     0
 10
0.0
 20
0.0
 30
0.0
  3
block 53
  1

  0
POLYLINE
  5
1BF
330
1BB
100
AcDbEntity
  8
CSLAYER1
 62
     4
420
    65535
370
    25
100
AcDb2dPolyline
 66
     1
 10
0.0
 20
0.0
 30
0.0
  0
VERTEX
  5
1C0
330
1BF
100
AcDbEntity
  8
CSLAYER1
 62
     4
420
    65535
370
    25
100
AcDbVertex
100
AcDb2dVertex
 10
87.41721240731452
 20
266.0791666141469
 30
0.0
  0
VERTEX
  5
1C1
330
1BF
100
AcDbEntity
  8
CSLAYER1
 62
     4
420
    65535
370
    25
100
AcDbVertex
100
AcDb2dVertex
 10
88.19366940731462
 20
263.181389614147
 30
0.0
  0
SEQEND
  5
1C2
330
1BF
100
AcDbEntity
  8
CSLAYER1
 62
     4
420
    65535
370
    25
  0
ENDBLK
  5
1BE
330
1BB
100
AcDbEntity
  8
0
100
AcDbBlockEnd
  0
BLOCK
  5
1C5
330
1C3
100
AcDbEntity
  8
0
100
AcDbBlockBegin
  2
block 54
 70
     0
 10
0.0
 20
0.0
 30
0.0
  3
block 54
  1

  0
MTEXT
  5
1C7
330
1C3
100
AcDbEntity
  8
CSLAYER1
 62
     4
420
    65535
100
AcDbMText
 10
86.91716379039147
 20
185.179130278261
 30
0.0
 40
3.200000026368342
 41
0.0
 46
0.0
 71
     7
 72
     1
  1
\fKozuka Gothic Pr6N R|b0|i0|c0|p34;\W1.15911;62
 11
6.123233995736766E-17
 21
1.0
 31
0.0
 73
     1
 44
1.0
  0
ENDBLK
  5
1C6
330
1C3
100
AcDbEntity
  8
0
100
AcDbBlockEnd
  0
BLOCK
  5
1CA
330
1C8
100
AcDbEntity
  8
0
100
AcDbBlockBegin
  2
block 55
 70
     0
 10
0.0
 20
0.0
 30
0.0
  3
block 55
  1

  0
POLYLINE
  5
1CC
330
1C8
100
AcDbEntity
  8
CSLAYER1
 62
     4
420
    65535
370
    25
100
AcDb2dPolyline
 66
     1
 10
0.0
 20
0.0
 30
0.0
  0
VERTEX
  5
1CD
330
1CC
100
AcDbEntity
  8
CSLAYER1
 62
     4
420
    65535
370
    25
100
AcDbVertex
100
AcDb2dVertex
 10
97.0194444073147
 20
157.3791666141466
 30
0.0
  0
VERTEX
  5
1CE
330
1CC
100
AcDbEntity
  8
CSLAYER1
 62
     4
420
    65535
370
    25
100
AcDbVertex
100
AcDb2dVertex
 10
86.4172124073145
 20
157.3791666141466
 30
0.0
  0
SEQEND
  5
1CF
330
1CC
100
AcDbEntity
  8
CSLAYER1
 62
     4
420
    65535
370
    25
  0
ENDBLK
  5
1CB
330
1C8
100
AcDbEntity
  8
0
100
AcDbBlockEnd
  0
BLOCK
  5
1D2
330
1D0
100
AcDbEntity
  8
0
100
AcDbBlockBegin
  2
block 56
 70
     0
 10
0.0
 20
0.0
 30
0.0
  3
block 56
  1

  0
POLYLINE
  5
1D4
330
1D0
100
AcDbEntity
  8
CSLAYER1
 62
     4
420
    65535
370
    25
100
AcDb2dPolyline
 66
     1
 10
0.0
 20
0.0
 30
0.0
  0
VERTEX
  5
1D5
330
1D4
100
AcDbEntity
  8
CSLAYER1
 62
     4
420
    65535
370
    25
100
AcDbVertex
100
AcDb2dVertex
 10
97.0194444073147
 20
219.3791666141469
 30
0.0
  0
VERTEX
  5
1D6
330
1D4
100
AcDbEntity
  8
CSLAYER1
 62
     4
420
    65535
370
    25
100
AcDbVertex
100
AcDb2dVertex
 10
86.4172124073145
 20
219.3791666141469
 30
0.0
  0
SEQEND
  5
1D7
330
1D4
100
AcDbEntity
  8
CSLAYER1
 62
     4
420
    65535
370
    25
  0
ENDBLK
  5
1D3
330
1D0
100
AcDbEntity
  8
0
100
AcDbBlockEnd
  0
BLOCK
  5
1DA
330
1D8
100
AcDbEntity
  8
0
100
AcDbBlockBegin
  2
block 57
 70
     0
 10
0.0
 20
0.0
 30
0.0
  3
block 57
  1

  0
POLYLINE
  5
1DC
330
1D8
100
AcDbEntity
  8
CSLAYER1
 62
     4
420
    65535
370
    25
100
AcDb2dPolyline
 66
     1
 10
0.0
 20
0.0
 30
0.0
  0
VERTEX
  5
1DD
330
1DC
100
AcDbEntity
  8
CSLAYER1
 62
     4
420
    65535
370
    25
100
AcDbVertex
100
AcDb2dVertex
 10
87.41721240731452
 20
157.3791666141466
 30
0.0
  0
VERTEX
  5
1DE
330
1DC
100
AcDbEntity
  8
CSLAYER1
 62
     4
420
    65535
370
    25
100
AcDbVertex
100
AcDb2dVertex
 10
87.41721240731452
 20
219.3791666141469
 30
0.0
  0
SEQEND
  5
1DF
330
1DC
100
AcDbEntity
  8
CSLAYER1
 62
     4
420
    65535
370
    25
  0
ENDBLK
  5
1DB
330
1D8
100
AcDbEntity
  8
0
100
AcDbBlockEnd
  0
BLOCK
  5
1E2
330
1E0
100
AcDbEntity
  8
0
100
AcDbBlockBegin
  2
block 58
 70
     0
 10
0.0
 20
0.0
 30
0.0
  3
block 58
  1

  0
POLYLINE
  5
1E4
330
1E0
100
AcDbEntity
  8
CSLAYER1
 62
     4
420
    65535
370
    25
100
AcDb2dPolyline
 66
     1
 10
0.0
 20
0.0
 30
0.0
  0
VERTEX
  5
1E5
330
1E4
100
AcDbEntity
  8
CSLAYER1
 62
     4
420
    65535
370
    25
100
AcDbVertex
100
AcDb2dVertex
 10
87.41721240731452
 20
157.3791666141466
 30
0.0
  0
VERTEX
  5
1E6
330
1E4
100
AcDbEntity
  8
CSLAYER1
 62
     4
420
    65535
370
    25
100
AcDbVertex
100
AcDb2dVertex
 10
86.64075540731444
 20
160.2769436141469
 30
0.0
  0
SEQEND
  5
1E7
330
1E4
100
AcDbEntity
  8
CSLAYER1
 62
     4
420
    65535
370
    25
  0
ENDBLK
  5
1E3
330
1E0
100
AcDbEntity
  8
0
100
AcDbBlockEnd
  0
BLOCK
  5
1EA
330
1E8
100
AcDbEntity
  8
0
100
AcDbBlockBegin
  2
block 59
 70
     0
 10
0.0
 20
0.0
 30
0.0
  3
block 59
  1

  0
POLYLINE
  5
1EC
330
1E8
100
AcDbEntity
  8
CSLAYER1
 62
     4
420
    65535
370
    25
100
AcDb2dPolyline
 66
     1
 10
0.0
 20
0.0
 30
0.0
  0
VERTEX
  5
1ED
330
1EC
100
AcDbEntity
  8
CSLAYER1
 62
     4
420
    65535
370
    25
100
AcDbVertex
100
AcDb2dVertex
 10
87.41721240731452
 20
157.3791666141466
 30
0.0
  0
VERTEX
  5
1EE
330
1EC
100
AcDbEntity
  8
CSLAYER1
 62
     4
420
    65535
370
    25
100
AcDbVertex
100
AcDb2dVertex
 10
88.19366940731462
 20
160.2769436141469
 30
0.0
  0
SEQEND
  5
1EF
330
1EC
100
AcDbEntity
  8
CSLAYER1
 62
     4
420
    65535
370
    25
  0
ENDBLK
  5
1EB
330
1E8
100
AcDbEntity
  8
0
100
AcDbBlockEnd
  0
BLOCK
  5
1F2
330
1F0
100
AcDbEntity
  8
0
100
AcDbBlockBegin
  2
block 60
 70
     0
 10
0.0
 20
0.0
 30
0.0
  3
block 60
  1

  0
POLYLINE
  5
1F4
330
1F0
100
AcDbEntity
  8
CSLAYER1
 62
     4
420
    65535
370
    25
100
AcDb2dPolyline
 66
     1
 10
0.0
 20
0.0
 30
0.0
  0
VERTEX
  5
1F5
330
1F4
100
AcDbEntity
  8
CSLAYER1
 62
     4
420
    65535
370
    25
100
AcDbVertex
100
AcDb2dVertex
 10
87.41721240731452
 20
219.3791666141469
 30
0.0
  0
VERTEX
  5
1F6
330
1F4
100
AcDbEntity
  8
CSLAYER1
 62
     4
420
    65535
370
    25
100
AcDbVertex
100
AcDb2dVertex
 10
86.64075540731444
 20
216.4813896141469
 30
0.0
  0
SEQEND
  5
1F7
330
1F4
100
AcDbEntity
  8
CSLAYER1
 62
     4
420
    65535
370
    25
  0
ENDBLK
  5
1F3
330
1F0
100
AcDbEntity
  8
0
100
AcDbBlockEnd
  0
BLOCK
  5
1FA
330
1F8
100
AcDbEntity
  8
0
100
AcDbBlockBegin
  2
block 61
 70
     0
 10
0.0
 20
0.0
 30
0.0
  3
block 61
  1

  0
POLYLINE
  5
1FC
330
1F8
100
AcDbEntity
  8
CSLAYER1
 62
     4
420
    65535
370
    25
100
AcDb2dPolyline
 66
     1
 10
0.0
 20
0.0
 30
0.0
  0
VERTEX
  5
1FD
330
1FC
100
AcDbEntity
  8
CSLAYER1
 62
     4
420
    65535
370
    25
100
AcDbVertex
100
AcDb2dVertex
 10
87.41721240731452
 20
219.3791666141469
 30
0.0
  0
VERTEX
  5
1FE
330
1FC
100
AcDbEntity
  8
CSLAYER1
 62
     4
420
    65535
370
    25
100
AcDbVertex
100
AcDb2dVertex
 10
88.19366940731462
 20
216.4813896141469
 30
0.0
  0
SEQEND
  5
1FF
330
1FC
100
AcDbEntity
  8
CSLAYER1
 62
     4
420
    65535
370
    25
  0
ENDBLK
  5
1FB
330
1F8
100
AcDbEntity
  8
0
100
AcDbBlockEnd
  0
BLOCK
  5
202
330
200
100
AcDbEntity
  8
0
100
AcDbBlockBegin
  2
block 62
 70
     0
 10
0.0
 20
0.0
 30
0.0
  3
block 62
  1

  0
MTEXT
  5
204
330
200
100
AcDbEntity
  8
CSLAYER1
 62
     4
420
    65535
100
AcDbMText
 10
100.4194460546592
 20
225.1723029047253
 30
0.0
 40
3.200000026368342
 41
0.0
 46
0.0
 71
     7
 72
     1
  1
\fKozuka Gothic Pr6N R|b0|i0|c0|p34;\W1.44889;8
 73
     1
 44
1.0
  0
ENDBLK
  5
203
330
200
100
AcDbEntity
  8
0
100
AcDbBlockEnd
  0
BLOCK
  5
207
330
205
100
AcDbEntity
  8
0
100
AcDbBlockBegin
  2
block 63
 70
     0
 10
0.0
 20
0.0
 30
0.0
  3
block 63
  1

  0
POLYLINE
  5
209
330
205
100
AcDbEntity
  8
CSLAYER1
 62
     4
420
    65535
370
    25
100
AcDb2dPolyline
 66
     1
 10
0.0
 20
0.0
 30
0.0
  0
VERTEX
  5
20A
330
209
100
AcDbEntity
  8
CSLAYER1
 62
     4
420
    65535
370
    25
100
AcDbVertex
100
AcDb2dVertex
 10
98.01944440731474
 20
220.3791666141469
 30
0.0
  0
VERTEX
  5
20B
330
209
100
AcDbEntity
  8
CSLAYER1
 62
     4
420
    65535
370
    25
100
AcDbVertex
100
AcDb2dVertex
 10
98.01944440731474
 20
225.6722576141468
 30
0.0
  0
SEQEND
  5
20C
330
209
100
AcDbEntity
  8
CSLAYER1
 62
     4
420
    65535
370
    25
  0
ENDBLK
  5
208
330
205
100
AcDbEntity
  8
0
100
AcDbBlockEnd
  0
BLOCK
  5
20F
330
20D
100
AcDbEntity
  8
0
100
AcDbBlockBegin
  2
block 64
 70
     0
 10
0.0
 20
0.0
 30
0.0
  3
block 64
  1

  0
POLYLINE
  5
211
330
20D
100
AcDbEntity
  8
CSLAYER1
 62
     4
420
    65535
370
    25
100
AcDb2dPolyline
 66
     1
 10
0.0
 20
0.0
 30
0.0
  0
VERTEX
  5
212
330
211
100
AcDbEntity
  8
CSLAYER1
 62
     4
420
    65535
370
    25
100
AcDbVertex
100
AcDb2dVertex
 10
106.0194444073147
 20
201.7311106141466
 30
0.0
  0
VERTEX
  5
213
330
211
100
AcDbEntity
  8
CSLAYER1
 62
     4
420
    65535
370
    25
100
AcDbVertex
100
AcDb2dVertex
 10
106.0194444073147
 20
225.6722576141468
 30
0.0
  0
SEQEND
  5
214
330
211
100
AcDbEntity
  8
CSLAYER1
 62
     4
420
    65535
370
    25
  0
ENDBLK
  5
210
330
20D
100
AcDbEntity
  8
0
100
AcDbBlockEnd
  0
BLOCK
  5
217
330
215
100
AcDbEntity
  8
0
100
AcDbBlockBegin
  2
block 65
 70
     0
 10
0.0
 20
0.0
 30
0.0
  3
block 65
  1

  0
POLYLINE
  5
219
330
215
100
AcDbEntity
  8
CSLAYER1
 62
     4
420
    65535
370
    25
100
AcDb2dPolyline
 66
     1
 10
0.0
 20
0.0
 30
0.0
  0
VERTEX
  5
21A
330
219
100
AcDbEntity
  8
CSLAYER1
 62
     4
420
    65535
370
    25
100
AcDbVertex
100
AcDb2dVertex
 10
98.01944440731474
 20
224.672257614147
 30
0.0
  0
VERTEX
  5
21B
330
219
100
AcDbEntity
  8
CSLAYER1
 62
     4
420
    65535
370
    25
100
AcDbVertex
100
AcDb2dVertex
 10
106.0194444073147
 20
224.672257614147
 30
0.0
  0
SEQEND
  5
21C
330
219
100
AcDbEntity
  8
CSLAYER1
 62
     4
420
    65535
370
    25
  0
ENDBLK
  5
218
330
215
100
AcDbEntity
  8
0
100
AcDbBlockEnd
  0
BLOCK
  5
21F
330
21D
100
AcDbEntity
  8
0
100
AcDbBlockBegin
  2
block 66
 70
     0
 10
0.0
 20
0.0
 30
0.0
  3
block 66
  1

  0
POLYLINE
  5
221
330
21D
100
AcDbEntity
  8
CSLAYER1
 62
     4
420
    65535
370
    25
100
AcDb2dPolyline
 66
     1
 10
0.0
 20
0.0
 30
0.0
  0
VERTEX
  5
222
330
221
100
AcDbEntity
  8
CSLAYER1
 62
     4
420
    65535
370
    25
100
AcDbVertex
100
AcDb2dVertex
 10
98.01944440731474
 20
224.672257614147
 30
0.0
  0
VERTEX
  5
223
330
221
100
AcDbEntity
  8
CSLAYER1
 62
     4
420
    65535
370
    25
100
AcDbVertex
100
AcDb2dVertex
 10
100.9172214073147
 20
225.4487146141468
 30
0.0
  0
SEQEND
  5
224
330
221
100
AcDbEntity
  8
CSLAYER1
 62
     4
420
    65535
370
    25
  0
ENDBLK
  5
220
330
21D
100
AcDbEntity
  8
0
100
AcDbBlockEnd
  0
BLOCK
  5
227
330
225
100
AcDbEntity
  8
0
100
AcDbBlockBegin
  2
block 67
 70
     0
 10
0.0
 20
0.0
 30
0.0
  3
block 67
  1

  0
POLYLINE
  5
229
330
225
100
AcDbEntity
  8
CSLAYER1
 62
     4
420
    65535
370
    25
100
AcDb2dPolyline
 66
     1
 10
0.0
 20
0.0
 30
0.0
  0
VERTEX
  5
22A
330
229
100
AcDbEntity
  8
CSLAYER1
 62
     4
420
    65535
370
    25
100
AcDbVertex
100
AcDb2dVertex
 10
98.01944440731474
 20
224.672257614147
 30
0.0
  0
VERTEX
  5
22B
330
229
100
AcDbEntity
  8
CSLAYER1
 62
     4
420
    65535
370
    25
100
AcDbVertex
100
AcDb2dVertex
 10
100.9172214073147
 20
223.895800614147
 30
0.0
  0
SEQEND
  5
22C
330
229
100
AcDbEntity
  8
CSLAYER1
 62
     4
420
    65535
370
    25
  0
ENDBLK
  5
228
330
225
100
AcDbEntity
  8
0
100
AcDbBlockEnd
  0
BLOCK
  5
22F
330
22D
100
AcDbEntity
  8
0
100
AcDbBlockBegin
  2
block 68
 70
     0
 10
0.0
 20
0.0
 30
0.0
  3
block 68
  1

  0
POLYLINE
  5
231
330
22D
100
AcDbEntity
  8
CSLAYER1
 62
     4
420
    65535
370
    25
100
AcDb2dPolyline
 66
     1
 10
0.0
 20
0.0
 30
0.0
  0
VERTEX
  5
232
330
231
100
AcDbEntity
  8
CSLAYER1
 62
     4
420
    65535
370
    25
100
AcDbVertex
100
AcDb2dVertex
 10
106.0194444073147
 20
224.672257614147
 30
0.0
  0
VERTEX
  5
233
330
231
100
AcDbEntity
  8
CSLAYER1
 62
     4
420
    65535
370
    25
100
AcDbVertex
100
AcDb2dVertex
 10
103.1216674073147
 20
225.4487146141468
 30
0.0
  0
SEQEND
  5
234
330
231
100
AcDbEntity
  8
CSLAYER1
 62
     4
420
    65535
370
    25
  0
ENDBLK
  5
230
330
22D
100
AcDbEntity
  8
0
100
AcDbBlockEnd
  0
BLOCK
  5
237
330
235
100
AcDbEntity
  8
0
100
AcDbBlockBegin
  2
block 69
 70
     0
 10
0.0
 20
0.0
 30
0.0
  3
block 69
  1

  0
POLYLINE
  5
239
330
235
100
AcDbEntity
  8
CSLAYER1
 62
     4
420
    65535
370
    25
100
AcDb2dPolyline
 66
     1
 10
0.0
 20
0.0
 30
0.0
  0
VERTEX
  5
23A
330
239
100
AcDbEntity
  8
CSLAYER1
 62
     4
420
    65535
370
    25
100
AcDbVertex
100
AcDb2dVertex
 10
106.0194444073147
 20
224.672257614147
 30
0.0
  0
VERTEX
  5
23B
330
239
100
AcDbEntity
  8
CSLAYER1
 62
     4
420
    65535
370
    25
100
AcDbVertex
100
AcDb2dVertex
 10
103.1216674073147
 20
223.895800614147
 30
0.0
  0
SEQEND
  5
23C
330
239
100
AcDbEntity
  8
CSLAYER1
 62
     4
420
    65535
370
    25
  0
ENDBLK
  5
238
330
235
100
AcDbEntity
  8
0
100
AcDbBlockEnd
  0
BLOCK
  5
23F
330
23D
100
AcDbEntity
  8
0
100
AcDbBlockBegin
  2
block 70
 70
     0
 10
0.0
 20
0.0
 30
0.0
  3
block 70
  1

  0
MTEXT
  5
241
330
23D
100
AcDbEntity
  8
CSLAYER1
 62
     4
420
    65535
100
AcDbMText
 10
107.2670744884812
 20
240.4121183515406
 30
0.0
 40
3.200000145635688
 41
0.0
 46
0.0
 71
     7
 72
     1
  1
\fKozuka Gothic Pr6N R|b0|i0|c0|p34;\W1.08667;R15
 11
0.872086454359375
 21
0.4893518326550885
 31
0.0
 73
     1
 44
1.0
  0
ENDBLK
  5
240
330
23D
100
AcDbEntity
  8
0
100
AcDbBlockEnd
  0
BLOCK
  5
244
330
242
100
AcDbEntity
  8
0
100
AcDbBlockBegin
  2
block 71
 70
     0
 10
0.0
 20
0.0
 30
0.0
  3
block 71
  1

  0
POLYLINE
  5
246
330
242
100
AcDbEntity
  8
CSLAYER1
 62
     4
420
    65535
370
    25
100
AcDb2dPolyline
 66
     1
 10
0.0
 20
0.0
 30
0.0
  0
VERTEX
  5
247
330
246
100
AcDbEntity
  8
CSLAYER1
 62
     4
420
    65535
370
    25
100
AcDbVertex
100
AcDb2dVertex
 10
101.4381474073145
 20
242.7388896141467
 30
0.0
  0
VERTEX
  5
248
330
246
100
AcDbEntity
  8
CSLAYER1
 62
     4
420
    65535
370
    25
100
AcDbVertex
100
AcDb2dVertex
 10
114.5194444073147
 20
250.079166614147
 30
0.0
  0
SEQEND
  5
249
330
246
100
AcDbEntity
  8
CSLAYER1
 62
     4
420
    65535
370
    25
  0
ENDBLK
  5
245
330
242
100
AcDbEntity
  8
0
100
AcDbBlockEnd
  0
BLOCK
  5
24C
330
24A
100
AcDbEntity
  8
0
100
AcDbBlockBegin
  2
block 72
 70
     0
 10
0.0
 20
0.0
 30
0.0
  3
block 72
  1

  0
POLYLINE
  5
24E
330
24A
100
AcDbEntity
  8
CSLAYER1
 62
     4
420
    65535
370
    25
100
AcDb2dPolyline
 66
     1
 10
0.0
 20
0.0
 30
0.0
  0
VERTEX
  5
24F
330
24E
100
AcDbEntity
  8
CSLAYER1
 62
     4
420
    65535
370
    25
100
AcDbVertex
100
AcDb2dVertex
 10
101.4381474073145
 20
242.7388896141467
 30
0.0
  0
VERTEX
  5
250
330
24E
100
AcDbEntity
  8
CSLAYER1
 62
     4
420
    65535
370
    25
100
AcDbVertex
100
AcDb2dVertex
 10
103.5852994073145
 20
244.8340596141469
 30
0.0
  0
SEQEND
  5
251
330
24E
100
AcDbEntity
  8
CSLAYER1
 62
     4
420
    65535
370
    25
  0
ENDBLK
  5
24D
330
24A
100
AcDbEntity
  8
0
100
AcDbBlockEnd
  0
BLOCK
  5
254
330
252
100
AcDbEntity
  8
0
100
AcDbBlockBegin
  2
block 73
 70
     0
 10
0.0
 20
0.0
 30
0.0
  3
block 73
  1

  0
POLYLINE
  5
256
330
252
100
AcDbEntity
  8
CSLAYER1
 62
     4
420
    65535
370
    25
100
AcDb2dPolyline
 66
     1
 10
0.0
 20
0.0
 30
0.0
  0
VERTEX
  5
257
330
256
100
AcDbEntity
  8
CSLAYER1
 62
     4
420
    65535
370
    25
100
AcDbVertex
100
AcDb2dVertex
 10
101.4381474073145
 20
242.7388896141467
 30
0.0
  0
VERTEX
  5
258
330
256
100
AcDbEntity
  8
CSLAYER1
 62
     4
420
    65535
370
    25
100
AcDbVertex
100
AcDb2dVertex
 10
104.3452204073144
 20
243.4797836141469
 30
0.0
  0
SEQEND
  5
259
330
256
100
AcDbEntity
  8
CSLAYER1
 62
     4
420
    65535
370
    25
  0
ENDBLK
  5
255
330
252
100
AcDbEntity
  8
0
100
AcDbBlockEnd
  0
BLOCK
  5
25C
330
25A
100
AcDbEntity
  8
0
100
AcDbBlockBegin
  2
block 74
 70
     0
 10
0.0
 20
0.0
 30
0.0
  3
block 74
  1

  0
MTEXT
  5
25E
330
25A
100
AcDbEntity
  8
CSLAYER1
 62
     4
420
    65535
100
AcDbMText
 10
165.2194528201433
 20
290.3921053210104
 30
0.0
 40
3.200000026368342
 41
0.0
 46
0.0
 71
     7
 72
     1
  1
\fKozuka Gothic Pr6N R|b0|i0|c0|p34;\W1.08667;144
 73
     1
 44
1.0
  0
ENDBLK
  5
25D
330
25A
100
AcDbEntity
  8
0
100
AcDbBlockEnd
  0
BLOCK
  5
261
330
25F
100
AcDbEntity
  8
0
100
AcDbBlockBegin
  2
block 75
 70
     0
 10
0.0
 20
0.0
 30
0.0
  3
block 75
  1

  0
POLYLINE
  5
263
330
25F
100
AcDbEntity
  8
CSLAYER1
 62
     4
420
    65535
370
    25
100
AcDb2dPolyline
 66
     1
 10
0.0
 20
0.0
 30
0.0
  0
VERTEX
  5
264
330
263
100
AcDbEntity
  8
CSLAYER1
 62
     4
420
    65535
370
    25
100
AcDbVertex
100
AcDb2dVertex
 10
98.01944440731474
 20
267.079166614147
 30
0.0
  0
VERTEX
  5
265
330
263
100
AcDbEntity
  8
CSLAYER1
 62
     4
420
    65535
370
    25
100
AcDbVertex
100
AcDb2dVertex
 10
98.01944440731474
 20
290.892067614147
 30
0.0
  0
SEQEND
  5
266
330
263
100
AcDbEntity
  8
CSLAYER1
 62
     4
420
    65535
370
    25
  0
ENDBLK
  5
262
330
25F
100
AcDbEntity
  8
0
100
AcDbBlockEnd
  0
BLOCK
  5
269
330
267
100
AcDbEntity
  8
0
100
AcDbBlockBegin
  2
block 76
 70
     0
 10
0.0
 20
0.0
 30
0.0
  3
block 76
  1

  0
POLYLINE
  5
26B
330
267
100
AcDbEntity
  8
CSLAYER1
 62
     4
420
    65535
370
    25
100
AcDb2dPolyline
 66
     1
 10
0.0
 20
0.0
 30
0.0
  0
VERTEX
  5
26C
330
26B
100
AcDbEntity
  8
CSLAYER1
 62
     4
420
    65535
370
    25
100
AcDbVertex
100
AcDb2dVertex
 10
242.0194444073144
 20
240.079166614147
 30
0.0
  0
VERTEX
  5
26D
330
26B
100
AcDbEntity
  8
CSLAYER1
 62
     4
420
    65535
370
    25
100
AcDbVertex
100
AcDb2dVertex
 10
242.0194444073144
 20
290.892067614147
 30
0.0
  0
SEQEND
  5
26E
330
26B
100
AcDbEntity
  8
CSLAYER1
 62
     4
420
    65535
370
    25
  0
ENDBLK
  5
26A
330
267
100
AcDbEntity
  8
0
100
AcDbBlockEnd
  0
BLOCK
  5
271
330
26F
100
AcDbEntity
  8
0
100
AcDbBlockBegin
  2
block 77
 70
     0
 10
0.0
 20
0.0
 30
0.0
  3
block 77
  1

  0
POLYLINE
  5
273
330
26F
100
AcDbEntity
  8
CSLAYER1
 62
     4
420
    65535
370
    25
100
AcDb2dPolyline
 66
     1
 10
0.0
 20
0.0
 30
0.0
  0
VERTEX
  5
274
330
273
100
AcDbEntity
  8
CSLAYER1
 62
     4
420
    65535
370
    25
100
AcDbVertex
100
AcDb2dVertex
 10
98.01944440731474
 20
289.8920676141469
 30
0.0
  0
VERTEX
  5
275
330
273
100
AcDbEntity
  8
CSLAYER1
 62
     4
420
    65535
370
    25
100
AcDbVertex
100
AcDb2dVertex
 10
242.0194444073144
 20
289.8920676141469
 30
0.0
  0
SEQEND
  5
276
330
273
100
AcDbEntity
  8
CSLAYER1
 62
     4
420
    65535
370
    25
  0
ENDBLK
  5
272
330
26F
100
AcDbEntity
  8
0
100
AcDbBlockEnd
  0
BLOCK
  5
279
330
277
100
AcDbEntity
  8
0
100
AcDbBlockBegin
  2
block 78
 70
     0
 10
0.0
 20
0.0
 30
0.0
  3
block 78
  1

  0
POLYLINE
  5
27B
330
277
100
AcDbEntity
  8
CSLAYER1
 62
     4
420
    65535
370
    25
100
AcDb2dPolyline
 66
     1
 10
0.0
 20
0.0
 30
0.0
  0
VERTEX
  5
27C
330
27B
100
AcDbEntity
  8
CSLAYER1
 62
     4
420
    65535
370
    25
100
AcDbVertex
100
AcDb2dVertex
 10
98.01944440731474
 20
289.8920676141469
 30
0.0
  0
VERTEX
  5
27D
330
27B
100
AcDbEntity
  8
CSLAYER1
 62
     4
420
    65535
370
    25
100
AcDbVertex
100
AcDb2dVertex
 10
100.9172214073147
 20
290.668525614147
 30
0.0
  0
SEQEND
  5
27E
330
27B
100
AcDbEntity
  8
CSLAYER1
 62
     4
420
    65535
370
    25
  0
ENDBLK
  5
27A
330
277
100
AcDbEntity
  8
0
100
AcDbBlockEnd
  0
BLOCK
  5
281
330
27F
100
AcDbEntity
  8
0
100
AcDbBlockBegin
  2
block 79
 70
     0
 10
0.0
 20
0.0
 30
0.0
  3
block 79
  1

  0
POLYLINE
  5
283
330
27F
100
AcDbEntity
  8
CSLAYER1
 62
     4
420
    65535
370
    25
100
AcDb2dPolyline
 66
     1
 10
0.0
 20
0.0
 30
0.0
  0
VERTEX
  5
284
330
283
100
AcDbEntity
  8
CSLAYER1
 62
     4
420
    65535
370
    25
100
AcDbVertex
100
AcDb2dVertex
 10
98.01944440731474
 20
289.8920676141469
 30
0.0
  0
VERTEX
  5
285
330
283
100
AcDbEntity
  8
CSLAYER1
 62
     4
420
    65535
370
    25
100
AcDbVertex
100
AcDb2dVertex
 10
100.9172214073147
 20
289.1156106141468
 30
0.0
  0
SEQEND
  5
286
330
283
100
AcDbEntity
  8
CSLAYER1
 62
     4
420
    65535
370
    25
  0
ENDBLK
  5
282
330
27F
100
AcDbEntity
  8
0
100
AcDbBlockEnd
  0
BLOCK
  5
289
330
287
100
AcDbEntity
  8
0
100
AcDbBlockBegin
  2
block 80
 70
     0
 10
0.0
 20
0.0
 30
0.0
  3
block 80
  1

  0
POLYLINE
  5
28B
330
287
100
AcDbEntity
  8
CSLAYER1
 62
     4
420
    65535
370
    25
100
AcDb2dPolyline
 66
     1
 10
0.0
 20
0.0
 30
0.0
  0
VERTEX
  5
28C
330
28B
100
AcDbEntity
  8
CSLAYER1
 62
     4
420
    65535
370
    25
100
AcDbVertex
100
AcDb2dVertex
 10
242.0194444073144
 20
289.8920676141469
 30
0.0
  0
VERTEX
  5
28D
330
28B
100
AcDbEntity
  8
CSLAYER1
 62
     4
420
    65535
370
    25
100
AcDbVertex
100
AcDb2dVertex
 10
239.1216674073147
 20
290.668525614147
 30
0.0
  0
SEQEND
  5
28E
330
28B
100
AcDbEntity
  8
CSLAYER1
 62
     4
420
    65535
370
    25
  0
ENDBLK
  5
28A
330
287
100
AcDbEntity
  8
0
100
AcDbBlockEnd
  0
BLOCK
  5
291
330
28F
100
AcDbEntity
  8
0
100
AcDbBlockBegin
  2
block 81
 70
     0
 10
0.0
 20
0.0
 30
0.0
  3
block 81
  1

  0
POLYLINE
  5
293
330
28F
100
AcDbEntity
  8
CSLAYER1
 62
     4
420
    65535
370
    25
100
AcDb2dPolyline
 66
     1
 10
0.0
 20
0.0
 30
0.0
  0
VERTEX
  5
294
330
293
100
AcDbEntity
  8
CSLAYER1
 62
     4
420
    65535
370
    25
100
AcDbVertex
100
AcDb2dVertex
 10
242.0194444073144
 20
289.8920676141469
 30
0.0
  0
VERTEX
  5
295
330
293
100
AcDbEntity
  8
CSLAYER1
 62
     4
420
    65535
370
    25
100
AcDbVertex
100
AcDb2dVertex
 10
239.1216674073147
 20
289.1156106141468
 30
0.0
  0
SEQEND
  5
296
330
293
100
AcDbEntity
  8
CSLAYER1
 62
     4
420
    65535
370
    25
  0
ENDBLK
  5
292
330
28F
100
AcDbEntity
  8
0
100
AcDbBlockEnd
  0
BLOCK
  5
299
330
297
100
AcDbEntity
  8
0
100
AcDbBlockBegin
  2
block 82
 70
     0
 10
0.0
 20
0.0
 30
0.0
  3
block 82
  1

  0
MTEXT
  5
29B
330
297
100
AcDbEntity
  8
CSLAYER1
 62
     4
420
    65535
100
AcDbMText
 10
124.8194209563283
 20
285.1101064548722
 30
0.0
 40
3.200000026368342
 41
0.0
 46
0.0
 71
     7
 72
     1
  1
\fKozuka Gothic Pr6N R|b0|i0|c0|p34;\W1.15911;60
 73
     1
 44
1.0
  0
ENDBLK
  5
29A
330
297
100
AcDbEntity
  8
0
100
AcDbBlockEnd
  0
BLOCK
  5
29E
330
29C
100
AcDbEntity
  8
0
100
AcDbBlockBegin
  2
block 83
 70
     0
 10
0.0
 20
0.0
 30
0.0
  3
block 83
  1

  0
POLYLINE
  5
2A0
330
29C
100
AcDbEntity
  8
CSLAYER1
 62
     4
420
    65535
370
    25
100
AcDb2dPolyline
 66
     1
 10
0.0
 20
0.0
 30
0.0
  0
VERTEX
  5
2A1
330
2A0
100
AcDbEntity
  8
CSLAYER1
 62
     4
420
    65535
370
    25
100
AcDbVertex
100
AcDb2dVertex
 10
158.0194444073146
 20
272.3611996141469
 30
0.0
  0
VERTEX
  5
2A2
330
2A0
100
AcDbEntity
  8
CSLAYER1
 62
     4
420
    65535
370
    25
100
AcDbVertex
100
AcDb2dVertex
 10
158.0194444073146
 20
285.6100706141468
 30
0.0
  0
SEQEND
  5
2A3
330
2A0
100
AcDbEntity
  8
CSLAYER1
 62
     4
420
    65535
370
    25
  0
ENDBLK
  5
29F
330
29C
100
AcDbEntity
  8
0
100
AcDbBlockEnd
  0
BLOCK
  5
2A6
330
2A4
100
AcDbEntity
  8
0
100
AcDbBlockBegin
  2
block 84
 70
     0
 10
0.0
 20
0.0
 30
0.0
  3
block 84
  1

  0
POLYLINE
  5
2A8
330
2A4
100
AcDbEntity
  8
CSLAYER1
 62
     4
420
    65535
370
    25
100
AcDb2dPolyline
 66
     1
 10
0.0
 20
0.0
 30
0.0
  0
VERTEX
  5
2A9
330
2A8
100
AcDbEntity
  8
CSLAYER1
 62
     4
420
    65535
370
    25
100
AcDbVertex
100
AcDb2dVertex
 10
98.01944440731474
 20
284.6100706141468
 30
0.0
  0
VERTEX
  5
2AA
330
2A8
100
AcDbEntity
  8
CSLAYER1
 62
     4
420
    65535
370
    25
100
AcDbVertex
100
AcDb2dVertex
 10
158.0194444073146
 20
284.6100706141468
 30
0.0
  0
SEQEND
  5
2AB
330
2A8
100
AcDbEntity
  8
CSLAYER1
 62
     4
420
    65535
370
    25
  0
ENDBLK
  5
2A7
330
2A4
100
AcDbEntity
  8
0
100
AcDbBlockEnd
  0
BLOCK
  5
2AE
330
2AC
100
AcDbEntity
  8
0
100
AcDbBlockBegin
  2
block 85
 70
     0
 10
0.0
 20
0.0
 30
0.0
  3
block 85
  1

  0
POLYLINE
  5
2B0
330
2AC
100
AcDbEntity
  8
CSLAYER1
 62
     4
420
    65535
370
    25
100
AcDb2dPolyline
 66
     1
 10
0.0
 20
0.0
 30
0.0
  0
VERTEX
  5
2B1
330
2B0
100
AcDbEntity
  8
CSLAYER1
 62
     4
420
    65535
370
    25
100
AcDbVertex
100
AcDb2dVertex
 10
98.01944440731474
 20
284.6100706141468
 30
0.0
  0
VERTEX
  5
2B2
330
2B0
100
AcDbEntity
  8
CSLAYER1
 62
     4
420
    65535
370
    25
100
AcDbVertex
100
AcDb2dVertex
 10
100.9172214073147
 20
285.3865276141469
 30
0.0
  0
SEQEND
  5
2B3
330
2B0
100
AcDbEntity
  8
CSLAYER1
 62
     4
420
    65535
370
    25
  0
ENDBLK
  5
2AF
330
2AC
100
AcDbEntity
  8
0
100
AcDbBlockEnd
  0
BLOCK
  5
2B6
330
2B4
100
AcDbEntity
  8
0
100
AcDbBlockBegin
  2
block 86
 70
     0
 10
0.0
 20
0.0
 30
0.0
  3
block 86
  1

  0
POLYLINE
  5
2B8
330
2B4
100
AcDbEntity
  8
CSLAYER1
 62
     4
420
    65535
370
    25
100
AcDb2dPolyline
 66
     1
 10
0.0
 20
0.0
 30
0.0
  0
VERTEX
  5
2B9
330
2B8
100
AcDbEntity
  8
CSLAYER1
 62
     4
420
    65535
370
    25
100
AcDbVertex
100
AcDb2dVertex
 10
98.01944440731474
 20
284.6100706141468
 30
0.0
  0
VERTEX
  5
2BA
330
2B8
100
AcDbEntity
  8
CSLAYER1
 62
     4
420
    65535
370
    25
100
AcDbVertex
100
AcDb2dVertex
 10
100.9172214073147
 20
283.833613614147
 30
0.0
  0
SEQEND
  5
2BB
330
2B8
100
AcDbEntity
  8
CSLAYER1
 62
     4
420
    65535
370
    25
  0
ENDBLK
  5
2B7
330
2B4
100
AcDbEntity
  8
0
100
AcDbBlockEnd
  0
BLOCK
  5
2BE
330
2BC
100
AcDbEntity
  8
0
100
AcDbBlockBegin
  2
block 87
 70
     0
 10
0.0
 20
0.0
 30
0.0
  3
block 87
  1

  0
POLYLINE
  5
2C0
330
2BC
100
AcDbEntity
  8
CSLAYER1
 62
     4
420
    65535
370
    25
100
AcDb2dPolyline
 66
     1
 10
0.0
 20
0.0
 30
0.0
  0
VERTEX
  5
2C1
330
2C0
100
AcDbEntity
  8
CSLAYER1
 62
     4
420
    65535
370
    25
100
AcDbVertex
100
AcDb2dVertex
 10
158.0194444073146
 20
284.6100706141468
 30
0.0
  0
VERTEX
  5
2C2
330
2C0
100
AcDbEntity
  8
CSLAYER1
 62
     4
420
    65535
370
    25
100
AcDbVertex
100
AcDb2dVertex
 10
155.1216674073143
 20
285.3865276141469
 30
0.0
  0
SEQEND
  5
2C3
330
2C0
100
AcDbEntity
  8
CSLAYER1
 62
     4
420
    65535
370
    25
  0
ENDBLK
  5
2BF
330
2BC
100
AcDbEntity
  8
0
100
AcDbBlockEnd
  0
BLOCK
  5
2C6
330
2C4
100
AcDbEntity
  8
0
100
AcDbBlockBegin
  2
block 88
 70
     0
 10
0.0
 20
0.0
 30
0.0
  3
block 88
  1

  0
POLYLINE
  5
2C8
330
2C4
100
AcDbEntity
  8
CSLAYER1
 62
     4
420
    65535
370
    25
100
AcDb2dPolyline
 66
     1
 10
0.0
 20
0.0
 30
0.0
  0
VERTEX
  5
2C9
330
2C8
100
AcDbEntity
  8
CSLAYER1
 62
     4
420
    65535
370
    25
100
AcDbVertex
100
AcDb2dVertex
 10
158.0194444073146
 20
284.6100706141468
 30
0.0
  0
VERTEX
  5
2CA
330
2C8
100
AcDbEntity
  8
CSLAYER1
 62
     4
420
    65535
370
    25
100
AcDbVertex
100
AcDb2dVertex
 10
155.1216674073143
 20
283.833613614147
 30
0.0
  0
SEQEND
  5
2CB
330
2C8
100
AcDbEntity
  8
CSLAYER1
 62
     4
420
    65535
370
    25
  0
ENDBLK
  5
2C7
330
2C4
100
AcDbEntity
  8
0
100
AcDbBlockEnd
  0
BLOCK
  5
2CE
330
2CC
100
AcDbEntity
  8
0
100
AcDbBlockBegin
  2
block 89
 70
     0
 10
0.0
 20
0.0
 30
0.0
  3
block 89
  1

  0
MTEXT
  5
2D0
330
2CC
100
AcDbEntity
  8
CSLAYER1
 62
     4
420
    65535
100
AcDbMText
 10
196.8194189038231
 20
285.1101064548722
 30
0.0
 40
3.200000026368342
 41
0.0
 46
0.0
 71
     7
 72
     1
  1
\fKozuka Gothic Pr6N R|b0|i0|c0|p34;\W1.15911;84
 73
     1
 44
1.0
  0
ENDBLK
  5
2CF
330
2CC
100
AcDbEntity
  8
0
100
AcDbBlockEnd
  0
BLOCK
  5
2D3
330
2D1
100
AcDbEntity
  8
0
100
AcDbBlockBegin
  2
block 90
 70
     0
 10
0.0
 20
0.0
 30
0.0
  3
block 90
  1

  0
POLYLINE
  5
2D5
330
2D1
100
AcDbEntity
  8
CSLAYER1
 62
     4
420
    65535
370
    25
100
AcDb2dPolyline
 66
     1
 10
0.0
 20
0.0
 30
0.0
  0
VERTEX
  5
2D6
330
2D5
100
AcDbEntity
  8
CSLAYER1
 62
     4
420
    65535
370
    25
100
AcDbVertex
100
AcDb2dVertex
 10
158.0194444073146
 20
284.6100706141468
 30
0.0
  0
VERTEX
  5
2D7
330
2D5
100
AcDbEntity
  8
CSLAYER1
 62
     4
420
    65535
370
    25
100
AcDbVertex
100
AcDb2dVertex
 10
242.0194444073144
 20
284.6100706141468
 30
0.0
  0
SEQEND
  5
2D8
330
2D5
100
AcDbEntity
  8
CSLAYER1
 62
     4
420
    65535
370
    25
  0
ENDBLK
  5
2D4
330
2D1
100
AcDbEntity
  8
0
100
AcDbBlockEnd
  0
BLOCK
  5
2DB
330
2D9
100
AcDbEntity
  8
0
100
AcDbBlockBegin
  2
block 91
 70
     0
 10
0.0
 20
0.0
 30
0.0
  3
block 91
  1

  0
POLYLINE
  5
2DD
330
2D9
100
AcDbEntity
  8
CSLAYER1
 62
     4
420
    65535
370
    25
100
AcDb2dPolyline
 66
     1
 10
0.0
 20
0.0
 30
0.0
  0
VERTEX
  5
2DE
330
2DD
100
AcDbEntity
  8
CSLAYER1
 62
     4
420
    65535
370
    25
100
AcDbVertex
100
AcDb2dVertex
 10
158.0194444073146
 20
284.6100706141468
 30
0.0
  0
VERTEX
  5
2DF
330
2DD
100
AcDbEntity
  8
CSLAYER1
 62
     4
420
    65535
370
    25
100
AcDbVertex
100
AcDb2dVertex
 10
160.9172214073143
 20
285.3865276141469
 30
0.0
  0
SEQEND
  5
2E0
330
2DD
100
AcDbEntity
  8
CSLAYER1
 62
     4
420
    65535
370
    25
  0
ENDBLK
  5
2DC
330
2D9
100
AcDbEntity
  8
0
100
AcDbBlockEnd
  0
BLOCK
  5
2E3
330
2E1
100
AcDbEntity
  8
0
100
AcDbBlockBegin
  2
block 92
 70
     0
 10
0.0
 20
0.0
 30
0.0
  3
block 92
  1

  0
POLYLINE
  5
2E5
330
2E1
100
AcDbEntity
  8
CSLAYER1
 62
     4
420
    65535
370
    25
100
AcDb2dPolyline
 66
     1
 10
0.0
 20
0.0
 30
0.0
  0
VERTEX
  5
2E6
330
2E5
100
AcDbEntity
  8
CSLAYER1
 62
     4
420
    65535
370
    25
100
AcDbVertex
100
AcDb2dVertex
 10
158.0194444073146
 20
284.6100706141468
 30
0.0
  0
VERTEX
  5
2E7
330
2E5
100
AcDbEntity
  8
CSLAYER1
 62
     4
420
    65535
370
    25
100
AcDbVertex
100
AcDb2dVertex
 10
160.9172214073143
 20
283.833613614147
 30
0.0
  0
SEQEND
  5
2E8
330
2E5
100
AcDbEntity
  8
CSLAYER1
 62
     4
420
    65535
370
    25
  0
ENDBLK
  5
2E4
330
2E1
100
AcDbEntity
  8
0
100
AcDbBlockEnd
  0
BLOCK
  5
2EB
330
2E9
100
AcDbEntity
  8
0
100
AcDbBlockBegin
  2
block 93
 70
     0
 10
0.0
 20
0.0
 30
0.0
  3
block 93
  1

  0
POLYLINE
  5
2ED
330
2E9
100
AcDbEntity
  8
CSLAYER1
 62
     4
420
    65535
370
    25
100
AcDb2dPolyline
 66
     1
 10
0.0
 20
0.0
 30
0.0
  0
VERTEX
  5
2EE
330
2ED
100
AcDbEntity
  8
CSLAYER1
 62
     4
420
    65535
370
    25
100
AcDbVertex
100
AcDb2dVertex
 10
242.0194444073144
 20
284.6100706141468
 30
0.0
  0
VERTEX
  5
2EF
330
2ED
100
AcDbEntity
  8
CSLAYER1
 62
     4
420
    65535
370
    25
100
AcDbVertex
100
AcDb2dVertex
 10
239.1216674073147
 20
285.3865276141469
 30
0.0
  0
SEQEND
  5
2F0
330
2ED
100
AcDbEntity
  8
CSLAYER1
 62
     4
420
    65535
370
    25
  0
ENDBLK
  5
2EC
330
2E9
100
AcDbEntity
  8
0
100
AcDbBlockEnd
  0
BLOCK
  5
2F3
330
2F1
100
AcDbEntity
  8
0
100
AcDbBlockBegin
  2
block 94
 70
     0
 10
0.0
 20
0.0
 30
0.0
  3
block 94
  1

  0
POLYLINE
  5
2F5
330
2F1
100
AcDbEntity
  8
CSLAYER1
 62
     4
420
    65535
370
    25
100
AcDb2dPolyline
 66
     1
 10
0.0
 20
0.0
 30
0.0
  0
VERTEX
  5
2F6
330
2F5
100
AcDbEntity
  8
CSLAYER1
 62
     4
420
    65535
370
    25
100
AcDbVertex
100
AcDb2dVertex
 10
242.0194444073144
 20
284.6100706141468
 30
0.0
  0
VERTEX
  5
2F7
330
2F5
100
AcDbEntity
  8
CSLAYER1
 62
     4
420
    65535
370
    25
100
AcDbVertex
100
AcDb2dVertex
 10
239.1216674073147
 20
283.833613614147
 30
0.0
  0
SEQEND
  5
2F8
330
2F5
100
AcDbEntity
  8
CSLAYER1
 62
     4
420
    65535
370
    25
  0
ENDBLK
  5
2F4
330
2F1
100
AcDbEntity
  8
0
100
AcDbBlockEnd
  0
BLOCK
  5
2FB
330
2F9
100
AcDbEntity
  8
0
100
AcDbBlockBegin
  2
block 95
 70
     0
 10
0.0
 20
0.0
 30
0.0
  3
block 95
  1

  0
MTEXT
  5
2FD
330
2F9
100
AcDbEntity
  8
CSLAYER1
 62
     4
420
    65535
100
AcDbMText
 10
129.3341806356629
 20
162.6792116640943
 30
0.0
 40
3.200000026368342
 41
0.0
 46
0.0
 71
     7
 72
     1
  1
\fKozuka Gothic Pr6N R|b0|i0|c0|p34;\W1.15911;17
 11
6.123233995736766E-17
 21
1.0
 31
0.0
 73
     1
 44
1.0
  0
ENDBLK
  5
2FC
330
2F9
100
AcDbEntity
  8
0
100
AcDbBlockEnd
  0
BLOCK
  5
300
330
2FE
100
AcDbEntity
  8
0
100
AcDbBlockBegin
  2
block 96
 70
     0
 10
0.0
 20
0.0
 30
0.0
  3
block 96
  1

  0
POLYLINE
  5
302
330
2FE
100
AcDbEntity
  8
CSLAYER1
 62
     4
420
    65535
370
    25
100
AcDb2dPolyline
 66
     1
 10
0.0
 20
0.0
 30
0.0
  0
VERTEX
  5
303
330
302
100
AcDbEntity
  8
CSLAYER1
 62
     4
420
    65535
370
    25
100
AcDbVertex
100
AcDb2dVertex
 10
129.8342224073147
 20
157.3791666141466
 30
0.0
  0
VERTEX
  5
304
330
302
100
AcDbEntity
  8
CSLAYER1
 62
     4
420
    65535
370
    25
100
AcDbVertex
100
AcDb2dVertex
 10
129.8342224073147
 20
174.3791666141466
 30
0.0
  0
SEQEND
  5
305
330
302
100
AcDbEntity
  8
CSLAYER1
 62
     4
420
    65535
370
    25
  0
ENDBLK
  5
301
330
2FE
100
AcDbEntity
  8
0
100
AcDbBlockEnd
  0
BLOCK
  5
308
330
306
100
AcDbEntity
  8
0
100
AcDbBlockBegin
  2
block 97
 70
     0
 10
0.0
 20
0.0
 30
0.0
  3
block 97
  1

  0
POLYLINE
  5
30A
330
306
100
AcDbEntity
  8
CSLAYER1
 62
     4
420
    65535
370
    25
100
AcDb2dPolyline
 66
     1
 10
0.0
 20
0.0
 30
0.0
  0
VERTEX
  5
30B
330
30A
100
AcDbEntity
  8
CSLAYER1
 62
     4
420
    65535
370
    25
100
AcDbVertex
100
AcDb2dVertex
 10
129.8342224073147
 20
157.3791666141466
 30
0.0
  0
VERTEX
  5
30C
330
30A
100
AcDbEntity
  8
CSLAYER1
 62
     4
420
    65535
370
    25
100
AcDbVertex
100
AcDb2dVertex
 10
129.0577654073146
 20
160.2769436141469
 30
0.0
  0
SEQEND
  5
30D
330
30A
100
AcDbEntity
  8
CSLAYER1
 62
     4
420
    65535
370
    25
  0
ENDBLK
  5
309
330
306
100
AcDbEntity
  8
0
100
AcDbBlockEnd
  0
BLOCK
  5
310
330
30E
100
AcDbEntity
  8
0
100
AcDbBlockBegin
  2
block 98
 70
     0
 10
0.0
 20
0.0
 30
0.0
  3
block 98
  1

  0
POLYLINE
  5
312
330
30E
100
AcDbEntity
  8
CSLAYER1
 62
     4
420
    65535
370
    25
100
AcDb2dPolyline
 66
     1
 10
0.0
 20
0.0
 30
0.0
  0
VERTEX
  5
313
330
312
100
AcDbEntity
  8
CSLAYER1
 62
     4
420
    65535
370
    25
100
AcDbVertex
100
AcDb2dVertex
 10
129.8342224073147
 20
157.3791666141466
 30
0.0
  0
VERTEX
  5
314
330
312
100
AcDbEntity
  8
CSLAYER1
 62
     4
420
    65535
370
    25
100
AcDbVertex
100
AcDb2dVertex
 10
130.6106794073144
 20
160.2769436141469
 30
0.0
  0
SEQEND
  5
315
330
312
100
AcDbEntity
  8
CSLAYER1
 62
     4
420
    65535
370
    25
  0
ENDBLK
  5
311
330
30E
100
AcDbEntity
  8
0
100
AcDbBlockEnd
  0
BLOCK
  5
318
330
316
100
AcDbEntity
  8
0
100
AcDbBlockBegin
  2
block 99
 70
     0
 10
0.0
 20
0.0
 30
0.0
  3
block 99
  1

  0
POLYLINE
  5
31A
330
316
100
AcDbEntity
  8
CSLAYER1
 62
     4
420
    65535
370
    25
100
AcDb2dPolyline
 66
     1
 10
0.0
 20
0.0
 30
0.0
  0
VERTEX
  5
31B
330
31A
100
AcDbEntity
  8
CSLAYER1
 62
     4
420
    65535
370
    25
100
AcDbVertex
100
AcDb2dVertex
 10
129.8342224073147
 20
174.3791666141466
 30
0.0
  0
VERTEX
  5
31C
330
31A
100
AcDbEntity
  8
CSLAYER1
 62
     4
420
    65535
370
    25
100
AcDbVertex
100
AcDb2dVertex
 10
129.0577654073146
 20
171.4813896141469
 30
0.0
  0
SEQEND
  5
31D
330
31A
100
AcDbEntity
  8
CSLAYER1
 62
     4
420
    65535
370
    25
  0
ENDBLK
  5
319
330
316
100
AcDbEntity
  8
0
100
AcDbBlockEnd
  0
BLOCK
  5
320
330
31E
100
AcDbEntity
  8
0
100
AcDbBlockBegin
  2
block 100
 70
     0
 10
0.0
 20
0.0
 30
0.0
  3
block 100
  1

  0
POLYLINE
  5
322
330
31E
100
AcDbEntity
  8
CSLAYER1
 62
     4
420
    65535
370
    25
100
AcDb2dPolyline
 66
     1
 10
0.0
 20
0.0
 30
0.0
  0
VERTEX
  5
323
330
322
100
AcDbEntity
  8
CSLAYER1
 62
     4
420
    65535
370
    25
100
AcDbVertex
100
AcDb2dVertex
 10
129.8342224073147
 20
174.3791666141466
 30
0.0
  0
VERTEX
  5
324
330
322
100
AcDbEntity
  8
CSLAYER1
 62
     4
420
    65535
370
    25
100
AcDbVertex
100
AcDb2dVertex
 10
130.6106794073144
 20
171.4813896141469
 30
0.0
  0
SEQEND
  5
325
330
322
100
AcDbEntity
  8
CSLAYER1
 62
     4
420
    65535
370
    25
  0
ENDBLK
  5
321
330
31E
100
AcDbEntity
  8
0
100
AcDbBlockEnd
  0
BLOCK
  5
328
330
326
100
AcDbEntity
  8
0
100
AcDbBlockBegin
  2
block 101
 70
     0
 10
0.0
 20
0.0
 30
0.0
  3
block 101
  1

  0
MTEXT
  5
32A
330
326
100
AcDbEntity
  8
CSLAYER1
 62
     3
420
    65280
100
AcDbMText
 10
270.4194326784346
 20
192.8791613626418
 30
0.0
 40
5.000000069194743
 41
0.0
 46
0.0
 71
     7
 72
     1
  1
\fKozuka Gothic Pr6N R|b0|i0|c0|p34;\W1.2;16
 73
     1
 44
1.0
  0
ENDBLK
  5
329
330
326
100
AcDbEntity
  8
0
100
AcDbBlockEnd
  0
BLOCK
  5
32D
330
32B
100
AcDbEntity
  8
0
100
AcDbBlockBegin
  2
block 102
 70
     0
 10
0.0
 20
0.0
 30
0.0
  3
block 102
  1

  0
MTEXT
  5
32F
330
32B
100
AcDbEntity
  8
CSLAYER1
 62
     3
420
    65280
100
AcDbMText
 10
270.4194326784346
 20
182.8791688249942
 30
0.0
 40
5.000000069194743
 41
0.0
 46
0.0
 71
     7
 72
     1
  1
\fKozuka Gothic Pr6N R|b0|i0|c0|p34;\W1.2;35
 73
     1
 44
1.0
  0
ENDBLK
  5
32E
330
32B
100
AcDbEntity
  8
0
100
AcDbBlockEnd
  0
BLOCK
  5
332
330
330
100
AcDbEntity
  8
0
100
AcDbBlockBegin
  2
block 103
 70
     0
 10
0.0
 20
0.0
 30
0.0
  3
block 103
  1

  0
MTEXT
  5
334
330
330
100
AcDbEntity
  8
CSLAYER1
 62
     3
420
    65280
100
AcDbMText
 10
244.2194384494161
 20
129.4791660408995
 30
0.0
 40
3.199999882311318
 41
0.0
 46
0.0
 71
     7
 72
     1
  1
\fKozuka Gothic Pr6N R|b0|i0|c0|p34;\W1.04348;N30AL525
 73
     1
 44
1.0
  0
ENDBLK
  5
333
330
330
100
AcDbEntity
  8
0
100
AcDbBlockEnd
  0
BLOCK
  5
337
330
335
100
AcDbEntity
  8
0
100
AcDbBlockBegin
  2
block 104
 70
     0
 10
0.0
 20
0.0
 30
0.0
  3
block 104
  1

  0
POLYLINE
  5
339
330
335
100
AcDbEntity
  8
CSLAYER1
 62
     4
420
    65535
370
    25
100
AcDb2dPolyline
 66
     1
 10
0.0
 20
0.0
 30
0.0
  0
VERTEX
  5
33A
330
339
100
AcDbEntity
  8
CSLAYER1
 62
     4
420
    65535
370
    25
100
AcDbVertex
100
AcDb2dVertex
 10
160.8968734073144
 20
174.3791666141466
 30
0.0
  0
VERTEX
  5
33B
330
339
100
AcDbEntity
  8
CSLAYER1
 62
     4
420
    65535
370
    25
100
AcDbVertex
100
AcDb2dVertex
 10
162.3968734073147
 20
176.977242614147
 30
0.0
  0
SEQEND
  5
33C
330
339
100
AcDbEntity
  8
CSLAYER1
 62
     4
420
    65535
370
    25
  0
ENDBLK
  5
338
330
335
100
AcDbEntity
  8
0
100
AcDbBlockEnd
  0
BLOCK
  5
33F
330
33D
100
AcDbEntity
  8
0
100
AcDbBlockBegin
  2
block 105
 70
     0
 10
0.0
 20
0.0
 30
0.0
  3
block 105
  1

  0
POLYLINE
  5
341
330
33D
100
AcDbEntity
  8
CSLAYER1
 62
     4
420
    65535
370
    25
100
AcDb2dPolyline
 66
     1
 10
0.0
 20
0.0
 30
0.0
  0
VERTEX
  5
342
330
341
100
AcDbEntity
  8
CSLAYER1
 62
     4
420
    65535
370
    25
100
AcDbVertex
100
AcDb2dVertex
 10
159.3968734073146
 20
176.977242614147
 30
0.0
  0
VERTEX
  5
343
330
341
100
AcDbEntity
  8
CSLAYER1
 62
     4
420
    65535
370
    25
100
AcDbVertex
100
AcDb2dVertex
 10
168.3968734073143
 20
176.977242614147
 30
0.0
  0
SEQEND
  5
344
330
341
100
AcDbEntity
  8
CSLAYER1
 62
     4
420
    65535
370
    25
  0
ENDBLK
  5
340
330
33D
100
AcDbEntity
  8
0
100
AcDbBlockEnd
  0
BLOCK
  5
347
330
345
100
AcDbEntity
  8
0
100
AcDbBlockBegin
  2
block 106
 70
     0
 10
0.0
 20
0.0
 30
0.0
  3
block 106
  1

  0
POLYLINE
  5
349
330
345
100
AcDbEntity
  8
CSLAYER1
 62
     4
420
    65535
370
    25
100
AcDb2dPolyline
 66
     1
 10
0.0
 20
0.0
 30
0.0
  0
VERTEX
  5
34A
330
349
100
AcDbEntity
  8
CSLAYER1
 62
     4
420
    65535
370
    25
100
AcDbVertex
100
AcDb2dVertex
 10
159.3968734073146
 20
176.977242614147
 30
0.0
  0
VERTEX
  5
34B
330
349
100
AcDbEntity
  8
CSLAYER1
 62
     4
420
    65535
370
    25
100
AcDbVertex
100
AcDb2dVertex
 10
160.8968734073144
 20
174.3791666141466
 30
0.0
  0
SEQEND
  5
34C
330
349
100
AcDbEntity
  8
CSLAYER1
 62
     4
420
    65535
370
    25
  0
ENDBLK
  5
348
330
345
100
AcDbEntity
  8
0
100
AcDbBlockEnd
  0
BLOCK
  5
34F
330
34D
100
AcDbEntity
  8
0
100
AcDbBlockBegin
  2
block 107
 70
     0
 10
0.0
 20
0.0
 30
0.0
  3
block 107
  1

  0
POLYLINE
  5
351
330
34D
100
AcDbEntity
  8
CSLAYER1
 62
     4
420
    65535
370
    25
100
AcDb2dPolyline
 66
     1
 10
0.0
 20
0.0
 30
0.0
  0
VERTEX
  5
352
330
351
100
AcDbEntity
  8
CSLAYER1
 62
     4
420
    65535
370
    25
100
AcDbVertex
100
AcDb2dVertex
 10
163.8968734073144
 20
174.3791666141466
 30
0.0
  0
VERTEX
  5
353
330
351
100
AcDbEntity
  8
CSLAYER1
 62
     4
420
    65535
370
    25
100
AcDbVertex
100
AcDb2dVertex
 10
165.3968734073148
 20
176.977242614147
 30
0.0
  0
SEQEND
  5
354
330
351
100
AcDbEntity
  8
CSLAYER1
 62
     4
420
    65535
370
    25
  0
ENDBLK
  5
350
330
34D
100
AcDbEntity
  8
0
100
AcDbBlockEnd
  0
BLOCK
  5
357
330
355
100
AcDbEntity
  8
0
100
AcDbBlockBegin
  2
block 108
 70
     0
 10
0.0
 20
0.0
 30
0.0
  3
block 108
  1

  0
POLYLINE
  5
359
330
355
100
AcDbEntity
  8
CSLAYER1
 62
     4
420
    65535
370
    25
100
AcDb2dPolyline
 66
     1
 10
0.0
 20
0.0
 30
0.0
  0
VERTEX
  5
35A
330
359
100
AcDbEntity
  8
CSLAYER1
 62
     4
420
    65535
370
    25
100
AcDbVertex
100
AcDb2dVertex
 10
162.3968734073147
 20
176.977242614147
 30
0.0
  0
VERTEX
  5
35B
330
359
100
AcDbEntity
  8
CSLAYER1
 62
     4
420
    65535
370
    25
100
AcDbVertex
100
AcDb2dVertex
 10
163.8968734073144
 20
174.3791666141466
 30
0.0
  0
SEQEND
  5
35C
330
359
100
AcDbEntity
  8
CSLAYER1
 62
     4
420
    65535
370
    25
  0
ENDBLK
  5
358
330
355
100
AcDbEntity
  8
0
100
AcDbBlockEnd
  0
BLOCK
  5
35F
330
35D
100
AcDbEntity
  8
0
100
AcDbBlockBegin
  2
block 109
 70
     0
 10
0.0
 20
0.0
 30
0.0
  3
block 109
  1

  0
POLYLINE
  5
361
330
35D
100
AcDbEntity
  8
CSLAYER1
 62
     4
420
    65535
370
    25
100
AcDb2dPolyline
 66
     1
 10
0.0
 20
0.0
 30
0.0
  0
VERTEX
  5
362
330
361
100
AcDbEntity
  8
CSLAYER1
 62
     4
420
    65535
370
    25
100
AcDbVertex
100
AcDb2dVertex
 10
166.8968734073146
 20
174.3791666141466
 30
0.0
  0
VERTEX
  5
363
330
361
100
AcDbEntity
  8
CSLAYER1
 62
     4
420
    65535
370
    25
100
AcDbVertex
100
AcDb2dVertex
 10
168.3968734073143
 20
176.977242614147
 30
0.0
  0
SEQEND
  5
364
330
361
100
AcDbEntity
  8
CSLAYER1
 62
     4
420
    65535
370
    25
  0
ENDBLK
  5
360
330
35D
100
AcDbEntity
  8
0
100
AcDbBlockEnd
  0
BLOCK
  5
367
330
365
100
AcDbEntity
  8
0
100
AcDbBlockBegin
  2
block 110
 70
     0
 10
0.0
 20
0.0
 30
0.0
  3
block 110
  1

  0
POLYLINE
  5
369
330
365
100
AcDbEntity
  8
CSLAYER1
 62
     4
420
    65535
370
    25
100
AcDb2dPolyline
 66
     1
 10
0.0
 20
0.0
 30
0.0
  0
VERTEX
  5
36A
330
369
100
AcDbEntity
  8
CSLAYER1
 62
     4
420
    65535
370
    25
100
AcDbVertex
100
AcDb2dVertex
 10
165.3968734073148
 20
176.977242614147
 30
0.0
  0
VERTEX
  5
36B
330
369
100
AcDbEntity
  8
CSLAYER1
 62
     4
420
    65535
370
    25
100
AcDbVertex
100
AcDb2dVertex
 10
166.8968734073146
 20
174.3791666141466
 30
0.0
  0
SEQEND
  5
36C
330
369
100
AcDbEntity
  8
CSLAYER1
 62
     4
420
    65535
370
    25
  0
ENDBLK
  5
368
330
365
100
AcDbEntity
  8
0
100
AcDbBlockEnd
  0
BLOCK
  5
36F
330
36D
100
AcDbEntity
  8
0
100
AcDbBlockBegin
  2
block 111
 70
     0
 10
0.0
 20
0.0
 30
0.0
  3
block 111
  1

  0
POLYLINE
  5
371
330
36D
100
AcDbEntity
  8
CSLAYER1
 62
     4
420
    65535
370
    25
100
AcDb2dPolyline
 66
     1
 10
0.0
 20
0.0
 30
0.0
  0
VERTEX
  5
372
330
371
100
AcDbEntity
  8
CSLAYER1
 62
     4
420
    65535
370
    25
100
AcDbVertex
100
AcDb2dVertex
 10
161.3563014073147
 20
157.3791666141466
 30
0.0
  0
VERTEX
  5
373
330
371
100
AcDbEntity
  8
CSLAYER1
 62
     4
420
    65535
370
    25
100
AcDbVertex
100
AcDb2dVertex
 10
159.8563014073143
 20
154.7810906141468
 30
0.0
  0
SEQEND
  5
374
330
371
100
AcDbEntity
  8
CSLAYER1
 62
     4
420
    65535
370
    25
  0
ENDBLK
  5
370
330
36D
100
AcDbEntity
  8
0
100
AcDbBlockEnd
  0
BLOCK
  5
377
330
375
100
AcDbEntity
  8
0
100
AcDbBlockBegin
  2
block 112
 70
     0
 10
0.0
 20
0.0
 30
0.0
  3
block 112
  1

  0
POLYLINE
  5
379
330
375
100
AcDbEntity
  8
CSLAYER1
 62
     4
420
    65535
370
    25
100
AcDb2dPolyline
 66
     1
 10
0.0
 20
0.0
 30
0.0
  0
VERTEX
  5
37A
330
379
100
AcDbEntity
  8
CSLAYER1
 62
     4
420
    65535
370
    25
100
AcDbVertex
100
AcDb2dVertex
 10
159.8563014073143
 20
154.7810906141468
 30
0.0
  0
VERTEX
  5
37B
330
379
100
AcDbEntity
  8
CSLAYER1
 62
     4
420
    65535
370
    25
100
AcDbVertex
100
AcDb2dVertex
 10
168.8563014073146
 20
154.7810906141468
 30
0.0
  0
SEQEND
  5
37C
330
379
100
AcDbEntity
  8
CSLAYER1
 62
     4
420
    65535
370
    25
  0
ENDBLK
  5
378
330
375
100
AcDbEntity
  8
0
100
AcDbBlockEnd
  0
BLOCK
  5
37F
330
37D
100
AcDbEntity
  8
0
100
AcDbBlockBegin
  2
block 113
 70
     0
 10
0.0
 20
0.0
 30
0.0
  3
block 113
  1

  0
POLYLINE
  5
381
330
37D
100
AcDbEntity
  8
CSLAYER1
 62
     4
420
    65535
370
    25
100
AcDb2dPolyline
 66
     1
 10
0.0
 20
0.0
 30
0.0
  0
VERTEX
  5
382
330
381
100
AcDbEntity
  8
CSLAYER1
 62
     4
420
    65535
370
    25
100
AcDbVertex
100
AcDb2dVertex
 10
162.8563014073144
 20
154.7810906141468
 30
0.0
  0
VERTEX
  5
383
330
381
100
AcDbEntity
  8
CSLAYER1
 62
     4
420
    65535
370
    25
100
AcDbVertex
100
AcDb2dVertex
 10
161.3563014073147
 20
157.3791666141466
 30
0.0
  0
SEQEND
  5
384
330
381
100
AcDbEntity
  8
CSLAYER1
 62
     4
420
    65535
370
    25
  0
ENDBLK
  5
380
330
37D
100
AcDbEntity
  8
0
100
AcDbBlockEnd
  0
BLOCK
  5
387
330
385
100
AcDbEntity
  8
0
100
AcDbBlockBegin
  2
block 114
 70
     0
 10
0.0
 20
0.0
 30
0.0
  3
block 114
  1

  0
POLYLINE
  5
389
330
385
100
AcDbEntity
  8
CSLAYER1
 62
     4
420
    65535
370
    25
100
AcDb2dPolyline
 66
     1
 10
0.0
 20
0.0
 30
0.0
  0
VERTEX
  5
38A
330
389
100
AcDbEntity
  8
CSLAYER1
 62
     4
420
    65535
370
    25
100
AcDbVertex
100
AcDb2dVertex
 10
164.3563014073148
 20
157.3791666141466
 30
0.0
  0
VERTEX
  5
38B
330
389
100
AcDbEntity
  8
CSLAYER1
 62
     4
420
    65535
370
    25
100
AcDbVertex
100
AcDb2dVertex
 10
162.8563014073144
 20
154.7810906141468
 30
0.0
  0
SEQEND
  5
38C
330
389
100
AcDbEntity
  8
CSLAYER1
 62
     4
420
    65535
370
    25
  0
ENDBLK
  5
388
330
385
100
AcDbEntity
  8
0
100
AcDbBlockEnd
  0
BLOCK
  5
38F
330
38D
100
AcDbEntity
  8
0
100
AcDbBlockBegin
  2
block 115
 70
     0
 10
0.0
 20
0.0
 30
0.0
  3
block 115
  1

  0
POLYLINE
  5
391
330
38D
100
AcDbEntity
  8
CSLAYER1
 62
     4
420
    65535
370
    25
100
AcDb2dPolyline
 66
     1
 10
0.0
 20
0.0
 30
0.0
  0
VERTEX
  5
392
330
391
100
AcDbEntity
  8
CSLAYER1
 62
     4
420
    65535
370
    25
100
AcDbVertex
100
AcDb2dVertex
 10
165.8563014073145
 20
154.7810906141468
 30
0.0
  0
VERTEX
  5
393
330
391
100
AcDbEntity
  8
CSLAYER1
 62
     4
420
    65535
370
    25
100
AcDbVertex
100
AcDb2dVertex
 10
164.3563014073148
 20
157.3791666141466
 30
0.0
  0
SEQEND
  5
394
330
391
100
AcDbEntity
  8
CSLAYER1
 62
     4
420
    65535
370
    25
  0
ENDBLK
  5
390
330
38D
100
AcDbEntity
  8
0
100
AcDbBlockEnd
  0
BLOCK
  5
397
330
395
100
AcDbEntity
  8
0
100
AcDbBlockBegin
  2
block 116
 70
     0
 10
0.0
 20
0.0
 30
0.0
  3
block 116
  1

  0
POLYLINE
  5
399
330
395
100
AcDbEntity
  8
CSLAYER1
 62
     4
420
    65535
370
    25
100
AcDb2dPolyline
 66
     1
 10
0.0
 20
0.0
 30
0.0
  0
VERTEX
  5
39A
330
399
100
AcDbEntity
  8
CSLAYER1
 62
     4
420
    65535
370
    25
100
AcDbVertex
100
AcDb2dVertex
 10
167.3563014073149
 20
157.3791666141466
 30
0.0
  0
VERTEX
  5
39B
330
399
100
AcDbEntity
  8
CSLAYER1
 62
     4
420
    65535
370
    25
100
AcDbVertex
100
AcDb2dVertex
 10
165.8563014073145
 20
154.7810906141468
 30
0.0
  0
SEQEND
  5
39C
330
399
100
AcDbEntity
  8
CSLAYER1
 62
     4
420
    65535
370
    25
  0
ENDBLK
  5
398
330
395
100
AcDbEntity
  8
0
100
AcDbBlockEnd
  0
BLOCK
  5
39F
330
39D
100
AcDbEntity
  8
0
100
AcDbBlockBegin
  2
block 117
 70
     0
 10
0.0
 20
0.0
 30
0.0
  3
block 117
  1

  0
POLYLINE
  5
3A1
330
39D
100
AcDbEntity
  8
CSLAYER1
 62
     4
420
    65535
370
    25
100
AcDb2dPolyline
 66
     1
 10
0.0
 20
0.0
 30
0.0
  0
VERTEX
  5
3A2
330
3A1
100
AcDbEntity
  8
CSLAYER1
 62
     4
420
    65535
370
    25
100
AcDbVertex
100
AcDb2dVertex
 10
168.8563014073146
 20
154.7810906141468
 30
0.0
  0
VERTEX
  5
3A3
330
3A1
100
AcDbEntity
  8
CSLAYER1
 62
     4
420
    65535
370
    25
100
AcDbVertex
100
AcDb2dVertex
 10
167.3563014073149
 20
157.3791666141466
 30
0.0
  0
SEQEND
  5
3A4
330
3A1
100
AcDbEntity
  8
CSLAYER1
 62
     4
420
    65535
370
    25
  0
ENDBLK
  5
3A0
330
39D
100
AcDbEntity
  8
0
100
AcDbBlockEnd
  0
BLOCK
  5
3A7
330
3A5
100
AcDbEntity
  8
0
100
AcDbBlockBegin
  2
block 118
 70
     0
 10
0.0
 20
0.0
 30
0.0
  3
block 118
  1

  0
MTEXT
  5
3A9
330
3A5
100
AcDbEntity
  8
CSLAYER1
 62
     4
420
    65535
100
AcDbMText
 10
101.8910742291394
 20
278.3215802016769
 30
0.0
 40
3.200000006511734
 41
0.0
 46
0.0
 71
     7
 72
     1
  1
\fKozuka Gothic Pr6N R|b0|i0|c0|p34;\W1.08667;35°
 11
0.9537169517857894
 21
-0.3007057962135452
 31
0.0
 73
     1
 44
1.0
  0
ENDBLK
  5
3A8
330
3A5
100
AcDbEntity
  8
0
100
AcDbBlockEnd
  0
BLOCK
  5
3AC
330
3AA
100
AcDbEntity
  8
0
100
AcDbBlockBegin
  2
block 119
 70
     0
 10
0.0
 20
0.0
 30
0.0
  3
block 119
  1

  0
SPLINE
  5
3AE
330
3AA
100
AcDbEntity
  8
CSLAYER1
 62
     4
420
    65535
370
    25
100
AcDbSpline
210
0.0
220
0.0
230
1.0
 70
     8
 71
     3
 72
     8
 73
     4
 74
     0
 42
0.0000000001
 43
0.0000000001
 12
1.0
 22
0.0
 32
0.0
 13
1.0
 23
0.0
 33
0.0
 40
0.0
 40
0.0
 40
0.0
 40
0.0
 40
1.0
 40
1.0
 40
1.0
 40
1.0
 10
113.8498414514456
 20
272.6873165986589
 30
0.0
 10
109.2102053200525
 20
275.9360247924107
 30
0.0
 10
103.6833942976191
 20
277.6786216141469
 30
0.0
 10
98.01944440731441
 20
277.6786216141469
 30
0.0
  0
ENDBLK
  5
3AD
330
3AA
100
AcDbEntity
  8
0
100
AcDbBlockEnd
  0
BLOCK
  5
3B1
330
3AF
100
AcDbEntity
  8
0
100
AcDbBlockBegin
  2
block 120
 70
     0
 10
0.0
 20
0.0
 30
0.0
  3
block 120
  1

  0
POLYLINE
  5
3B3
330
3AF
100
AcDbEntity
  8
CSLAYER1
 62
     4
420
    65535
370
    25
100
AcDb2dPolyline
 66
     1
 10
0.0
 20
0.0
 30
0.0
  0
VERTEX
  5
3B4
330
3B3
100
AcDbEntity
  8
CSLAYER1
 62
     4
420
    65535
370
    25
100
AcDbVertex
100
AcDb2dVertex
 10
113.8498414073147
 20
272.687316614147
 30
0.0
  0
VERTEX
  5
3B5
330
3B3
100
AcDbEntity
  8
CSLAYER1
 62
     4
420
    65535
370
    25
100
AcDbVertex
100
AcDb2dVertex
 10
111.0307634073146
 20
273.713376614147
 30
0.0
  0
SEQEND
  5
3B6
330
3B3
100
AcDbEntity
  8
CSLAYER1
 62
     4
420
    65535
370
    25
  0
ENDBLK
  5
3B2
330
3AF
100
AcDbEntity
  8
0
100
AcDbBlockEnd
  0
BLOCK
  5
3B9
330
3B7
100
AcDbEntity
  8
0
100
AcDbBlockBegin
  2
block 121
 70
     0
 10
0.0
 20
0.0
 30
0.0
  3
block 121
  1

  0
POLYLINE
  5
3BB
330
3B7
100
AcDbEntity
  8
CSLAYER1
 62
     4
420
    65535
370
    25
100
AcDb2dPolyline
 66
     1
 10
0.0
 20
0.0
 30
0.0
  0
VERTEX
  5
3BC
330
3BB
100
AcDbEntity
  8
CSLAYER1
 62
     4
420
    65535
370
    25
100
AcDbVertex
100
AcDb2dVertex
 10
113.8498414073147
 20
272.687316614147
 30
0.0
  0
VERTEX
  5
3BD
330
3BB
100
AcDbEntity
  8
CSLAYER1
 62
     4
420
    65535
370
    25
100
AcDbVertex
100
AcDb2dVertex
 10
111.9214784073145
 20
274.9854496141468
 30
0.0
  0
SEQEND
  5
3BE
330
3BB
100
AcDbEntity
  8
CSLAYER1
 62
     4
420
    65535
370
    25
  0
ENDBLK
  5
3BA
330
3B7
100
AcDbEntity
  8
0
100
AcDbBlockEnd
  0
BLOCK
  5
3C1
330
3BF
100
AcDbEntity
  8
0
100
AcDbBlockBegin
  2
block 122
 70
     0
 10
0.0
 20
0.0
 30
0.0
  3
block 122
  1

  0
POLYLINE
  5
3C3
330
3BF
100
AcDbEntity
  8
CSLAYER1
 62
     4
420
    65535
370
    25
100
AcDb2dPolyline
 66
     1
 10
0.0
 20
0.0
 30
0.0
  0
VERTEX
  5
3C4
330
3C3
100
AcDbEntity
  8
CSLAYER1
 62
     4
420
    65535
370
    25
100
AcDbVertex
100
AcDb2dVertex
 10
98.01944440731474
 20
277.6786216141469
 30
0.0
  0
VERTEX
  5
3C5
330
3C3
100
AcDbEntity
  8
CSLAYER1
 62
     4
420
    65535
370
    25
100
AcDbVertex
100
AcDb2dVertex
 10
100.9172214073147
 20
278.4550786141467
 30
0.0
  0
SEQEND
  5
3C6
330
3C3
100
AcDbEntity
  8
CSLAYER1
 62
     4
420
    65535
370
    25
  0
ENDBLK
  5
3C2
330
3BF
100
AcDbEntity
  8
0
100
AcDbBlockEnd
  0
BLOCK
  5
3C9
330
3C7
100
AcDbEntity
  8
0
100
AcDbBlockBegin
  2
block 123
 70
     0
 10
0.0
 20
0.0
 30
0.0
  3
block 123
  1

  0
POLYLINE
  5
3CB
330
3C7
100
AcDbEntity
  8
CSLAYER1
 62
     4
420
    65535
370
    25
100
AcDb2dPolyline
 66
     1
 10
0.0
 20
0.0
 30
0.0
  0
VERTEX
  5
3CC
330
3CB
100
AcDbEntity
  8
CSLAYER1
 62
     4
420
    65535
370
    25
100
AcDbVertex
100
AcDb2dVertex
 10
98.01944440731474
 20
277.6786216141469
 30
0.0
  0
VERTEX
  5
3CD
330
3CB
100
AcDbEntity
  8
CSLAYER1
 62
     4
420
    65535
370
    25
100
AcDbVertex
100
AcDb2dVertex
 10
100.9172214073147
 20
276.9021636141468
 30
0.0
  0
SEQEND
  5
3CE
330
3CB
100
AcDbEntity
  8
CSLAYER1
 62
     4
420
    65535
370
    25
  0
ENDBLK
  5
3CA
330
3C7
100
AcDbEntity
  8
0
100
AcDbBlockEnd
  0
BLOCK
  5
3D1
330
3CF
100
AcDbEntity
  8
0
100
AcDbBlockBegin
  2
block 124
 70
     0
 10
0.0
 20
0.0
 30
0.0
  3
block 124
  1

  0
POLYLINE
  5
3D3
330
3CF
100
AcDbEntity
  8
CSLAYER1
 62
     4
420
    65535
370
    25
100
AcDb2dPolyline
 66
     1
 10
0.0
 20
0.0
 30
0.0
  0
VERTEX
  5
3D4
330
3D3
100
AcDbEntity
  8
CSLAYER1
 62
     4
420
    65535
370
    25
100
AcDbVertex
100
AcDb2dVertex
 10
100.2901304073147
 20
253.322042614147
 30
0.0
  0
VERTEX
  5
3D5
330
3D3
100
AcDbEntity
  8
CSLAYER1
 62
     4
420
    65535
370
    25
100
AcDbVertex
100
AcDb2dVertex
 10
114.4234174073145
 20
273.5064686141467
 30
0.0
  0
SEQEND
  5
3D6
330
3D3
100
AcDbEntity
  8
CSLAYER1
 62
     4
420
    65535
370
    25
  0
ENDBLK
  5
3D2
330
3CF
100
AcDbEntity
  8
0
100
AcDbBlockEnd
  0
BLOCK
  5
3D9
330
3D7
100
AcDbEntity
  8
0
100
AcDbBlockBegin
  2
block 125
 70
     0
 10
0.0
 20
0.0
 30
0.0
  3
block 125
  1

  0
POLYLINE
  5
3DB
330
3D7
100
AcDbEntity
  8
CSLAYER1
 62
     4
420
    65535
370
    25
100
AcDb2dPolyline
 66
     1
 10
0.0
 20
0.0
 30
0.0
  0
VERTEX
  5
3DC
330
3DB
100
AcDbEntity
  8
CSLAYER1
 62
     4
420
    65535
370
    25
100
AcDbVertex
100
AcDb2dVertex
 10
98.01944440731474
 20
254.0379866141468
 30
0.0
  0
VERTEX
  5
3DD
330
3DB
100
AcDbEntity
  8
CSLAYER1
 62
     4
420
    65535
370
    25
100
AcDbVertex
100
AcDb2dVertex
 10
98.01944440731474
 20
278.678621614147
 30
0.0
  0
SEQEND
  5
3DE
330
3DB
100
AcDbEntity
  8
CSLAYER1
 62
     4
420
    65535
370
    25
  0
ENDBLK
  5
3DA
330
3D7
100
AcDbEntity
  8
0
100
AcDbBlockEnd
  0
BLOCK
  5
3E1
330
3DF
100
AcDbEntity
  8
0
100
AcDbBlockBegin
  2
block 126
 70
     0
 10
0.0
 20
0.0
 30
0.0
  3
block 126
  1

  0
MTEXT
  5
3E3
330
3DF
100
AcDbEntity
  8
CSLAYER1
 62
     4
420
    65535
100
AcDbMText
 10
59.1817239158085
 20
213.5228563053064
 30
0.0
 40
3.20000006453277
 41
0.0
 46
0.0
 71
     7
 72
     1
  1
\fKozuka Gothic Pr6N R|b0|i0|c0|p34;\W1.03492;(R20)
 11
0.681257123463628
 21
0.7320442143272926
 31
0.0
 73
     1
 44
1.0
  0
ENDBLK
  5
3E2
330
3DF
100
AcDbEntity
  8
0
100
AcDbBlockEnd
  0
BLOCK
  5
3E6
330
3E4
100
AcDbEntity
  8
0
100
AcDbBlockBegin
  2
block 127
 70
     0
 10
0.0
 20
0.0
 30
0.0
  3
block 127
  1

  0
POLYLINE
  5
3E8
330
3E4
100
AcDbEntity
  8
CSLAYER1
 62
     4
420
    65535
370
    25
100
AcDb2dPolyline
 66
     1
 10
0.0
 20
0.0
 30
0.0
  0
VERTEX
  5
3E9
330
3E8
100
AcDbEntity
  8
CSLAYER1
 62
     4
420
    65535
370
    25
100
AcDbVertex
100
AcDb2dVertex
 10
58.25687240731473
 20
214.4241336141468
 30
0.0
  0
VERTEX
  5
3EA
330
3E8
100
AcDbEntity
  8
CSLAYER1
 62
     4
420
    65535
370
    25
100
AcDbVertex
100
AcDb2dVertex
 10
44.63173040731456
 20
199.7832486141465
 30
0.0
  0
SEQEND
  5
3EB
330
3E8
100
AcDbEntity
  8
CSLAYER1
 62
     4
420
    65535
370
    25
  0
ENDBLK
  5
3E7
330
3E4
100
AcDbEntity
  8
0
100
AcDbBlockEnd
  0
BLOCK
  5
3EE
330
3EC
100
AcDbEntity
  8
0
100
AcDbBlockBegin
  2
block 128
 70
     0
 10
0.0
 20
0.0
 30
0.0
  3
block 128
  1

  0
POLYLINE
  5
3F0
330
3EC
100
AcDbEntity
  8
CSLAYER1
 62
     4
420
    65535
370
    25
100
AcDb2dPolyline
 66
     1
 10
0.0
 20
0.0
 30
0.0
  0
VERTEX
  5
3F1
330
3F0
100
AcDbEntity
  8
CSLAYER1
 62
     4
420
    65535
370
    25
100
AcDbVertex
100
AcDb2dVertex
 10
58.25687240731473
 20
214.4241336141468
 30
0.0
  0
VERTEX
  5
3F2
330
3F0
100
AcDbEntity
  8
CSLAYER1
 62
     4
420
    65535
370
    25
100
AcDbVertex
100
AcDb2dVertex
 10
56.85114140731449
 20
211.7738656141467
 30
0.0
  0
SEQEND
  5
3F3
330
3F0
100
AcDbEntity
  8
CSLAYER1
 62
     4
420
    65535
370
    25
  0
ENDBLK
  5
3EF
330
3EC
100
AcDbEntity
  8
0
100
AcDbBlockEnd
  0
BLOCK
  5
3F6
330
3F4
100
AcDbEntity
  8
0
100
AcDbBlockBegin
  2
block 129
 70
     0
 10
0.0
 20
0.0
 30
0.0
  3
block 129
  1

  0
POLYLINE
  5
3F8
330
3F4
100
AcDbEntity
  8
CSLAYER1
 62
     4
420
    65535
370
    25
100
AcDb2dPolyline
 66
     1
 10
0.0
 20
0.0
 30
0.0
  0
VERTEX
  5
3F9
330
3F8
100
AcDbEntity
  8
CSLAYER1
 62
     4
420
    65535
370
    25
100
AcDbVertex
100
AcDb2dVertex
 10
58.25687240731473
 20
214.4241336141468
 30
0.0
  0
VERTEX
  5
3FA
330
3F8
100
AcDbEntity
  8
CSLAYER1
 62
     4
420
    65535
370
    25
100
AcDbVertex
100
AcDb2dVertex
 10
55.71433940731446
 20
212.8317996141467
 30
0.0
  0
SEQEND
  5
3FB
330
3F8
100
AcDbEntity
  8
CSLAYER1
 62
     4
420
    65535
370
    25
  0
ENDBLK
  5
3F7
330
3F4
100
AcDbEntity
  8
0
100
AcDbBlockEnd
  0
BLOCK
  5
3FE
330
3FC
100
AcDbEntity
  8
0
100
AcDbBlockBegin
  2
block 130
 70
     0
 10
0.0
 20
0.0
 30
0.0
  3
block 130
  1

  0
MTEXT
  5
400
330
3FC
100
AcDbEntity
  8
CSLAYER1
 62
     4
420
    65535
100
AcDbMText
 10
113.0697018291007
 20
198.1791980918512
 30
0.0
 40
3.200000026368342
 41
0.0
 46
0.0
 71
     7
 72
     1
  1
\fKozuka Gothic Pr6N R|b0|i0|c0|p34;\W1.15911;36
 11
6.123233995736766E-17
 21
1.0
 31
0.0
 73
     1
 44
1.0
  0
ENDBLK
  5
3FF
330
3FC
100
AcDbEntity
  8
0
100
AcDbBlockEnd
  0
BLOCK
  5
403
330
401
100
AcDbEntity
  8
0
100
AcDbBlockBegin
  2
block 131
 70
     0
 10
0.0
 20
0.0
 30
0.0
  3
block 131
  1

  0
POLYLINE
  5
405
330
401
100
AcDbEntity
  8
CSLAYER1
 62
     4
420
    65535
370
    25
100
AcDb2dPolyline
 66
     1
 10
0.0
 20
0.0
 30
0.0
  0
VERTEX
  5
406
330
405
100
AcDbEntity
  8
CSLAYER1
 62
     4
420
    65535
370
    25
100
AcDbVertex
100
AcDb2dVertex
 10
107.0194444073147
 20
183.3791666141469
 30
0.0
  0
VERTEX
  5
407
330
405
100
AcDbEntity
  8
CSLAYER1
 62
     4
420
    65535
370
    25
100
AcDbVertex
100
AcDb2dVertex
 10
114.5697474073145
 20
183.3791666141469
 30
0.0
  0
SEQEND
  5
408
330
405
100
AcDbEntity
  8
CSLAYER1
 62
     4
420
    65535
370
    25
  0
ENDBLK
  5
404
330
401
100
AcDbEntity
  8
0
100
AcDbBlockEnd
  0
BLOCK
  5
40B
330
409
100
AcDbEntity
  8
0
100
AcDbBlockBegin
  2
block 132
 70
     0
 10
0.0
 20
0.0
 30
0.0
  3
block 132
  1

  0
POLYLINE
  5
40D
330
409
100
AcDbEntity
  8
CSLAYER1
 62
     4
420
    65535
370
    25
100
AcDb2dPolyline
 66
     1
 10
0.0
 20
0.0
 30
0.0
  0
VERTEX
  5
40E
330
40D
100
AcDbEntity
  8
CSLAYER1
 62
     4
420
    65535
370
    25
100
AcDbVertex
100
AcDb2dVertex
 10
100.5194444073145
 20
219.3791666141469
 30
0.0
  0
VERTEX
  5
40F
330
40D
100
AcDbEntity
  8
CSLAYER1
 62
     4
420
    65535
370
    25
100
AcDbVertex
100
AcDb2dVertex
 10
114.5697474073145
 20
219.3791666141469
 30
0.0
  0
SEQEND
  5
410
330
40D
100
AcDbEntity
  8
CSLAYER1
 62
     4
420
    65535
370
    25
  0
ENDBLK
  5
40C
330
409
100
AcDbEntity
  8
0
100
AcDbBlockEnd
  0
BLOCK
  5
413
330
411
100
AcDbEntity
  8
0
100
AcDbBlockBegin
  2
block 133
 70
     0
 10
0.0
 20
0.0
 30
0.0
  3
block 133
  1

  0
POLYLINE
  5
415
330
411
100
AcDbEntity
  8
CSLAYER1
 62
     4
420
    65535
370
    25
100
AcDb2dPolyline
 66
     1
 10
0.0
 20
0.0
 30
0.0
  0
VERTEX
  5
416
330
415
100
AcDbEntity
  8
CSLAYER1
 62
     4
420
    65535
370
    25
100
AcDbVertex
100
AcDb2dVertex
 10
113.5697474073145
 20
183.3791666141469
 30
0.0
  0
VERTEX
  5
417
330
415
100
AcDbEntity
  8
CSLAYER1
 62
     4
420
    65535
370
    25
100
AcDbVertex
100
AcDb2dVertex
 10
113.5697474073145
 20
219.3791666141469
 30
0.0
  0
SEQEND
  5
418
330
415
100
AcDbEntity
  8
CSLAYER1
 62
     4
420
    65535
370
    25
  0
ENDBLK
  5
414
330
411
100
AcDbEntity
  8
0
100
AcDbBlockEnd
  0
BLOCK
  5
41B
330
419
100
AcDbEntity
  8
0
100
AcDbBlockBegin
  2
block 134
 70
     0
 10
0.0
 20
0.0
 30
0.0
  3
block 134
  1

  0
POLYLINE
  5
41D
330
419
100
AcDbEntity
  8
CSLAYER1
 62
     4
420
    65535
370
    25
100
AcDb2dPolyline
 66
     1
 10
0.0
 20
0.0
 30
0.0
  0
VERTEX
  5
41E
330
41D
100
AcDbEntity
  8
CSLAYER1
 62
     4
420
    65535
370
    25
100
AcDbVertex
100
AcDb2dVertex
 10
113.5697474073145
 20
183.3791666141469
 30
0.0
  0
VERTEX
  5
41F
330
41D
100
AcDbEntity
  8
CSLAYER1
 62
     4
420
    65535
370
    25
100
AcDbVertex
100
AcDb2dVertex
 10
112.7932904073147
 20
186.2769436141466
 30
0.0
  0
SEQEND
  5
420
330
41D
100
AcDbEntity
  8
CSLAYER1
 62
     4
420
    65535
370
    25
  0
ENDBLK
  5
41C
330
419
100
AcDbEntity
  8
0
100
AcDbBlockEnd
  0
BLOCK
  5
423
330
421
100
AcDbEntity
  8
0
100
AcDbBlockBegin
  2
block 135
 70
     0
 10
0.0
 20
0.0
 30
0.0
  3
block 135
  1

  0
POLYLINE
  5
425
330
421
100
AcDbEntity
  8
CSLAYER1
 62
     4
420
    65535
370
    25
100
AcDb2dPolyline
 66
     1
 10
0.0
 20
0.0
 30
0.0
  0
VERTEX
  5
426
330
425
100
AcDbEntity
  8
CSLAYER1
 62
     4
420
    65535
370
    25
100
AcDbVertex
100
AcDb2dVertex
 10
113.5697474073145
 20
183.3791666141469
 30
0.0
  0
VERTEX
  5
427
330
425
100
AcDbEntity
  8
CSLAYER1
 62
     4
420
    65535
370
    25
100
AcDbVertex
100
AcDb2dVertex
 10
114.3462044073145
 20
186.2769436141466
 30
0.0
  0
SEQEND
  5
428
330
425
100
AcDbEntity
  8
CSLAYER1
 62
     4
420
    65535
370
    25
  0
ENDBLK
  5
424
330
421
100
AcDbEntity
  8
0
100
AcDbBlockEnd
  0
BLOCK
  5
42B
330
429
100
AcDbEntity
  8
0
100
AcDbBlockBegin
  2
block 136
 70
     0
 10
0.0
 20
0.0
 30
0.0
  3
block 136
  1

  0
POLYLINE
  5
42D
330
429
100
AcDbEntity
  8
CSLAYER1
 62
     4
420
    65535
370
    25
100
AcDb2dPolyline
 66
     1
 10
0.0
 20
0.0
 30
0.0
  0
VERTEX
  5
42E
330
42D
100
AcDbEntity
  8
CSLAYER1
 62
     4
420
    65535
370
    25
100
AcDbVertex
100
AcDb2dVertex
 10
113.5697474073145
 20
219.3791666141469
 30
0.0
  0
VERTEX
  5
42F
330
42D
100
AcDbEntity
  8
CSLAYER1
 62
     4
420
    65535
370
    25
100
AcDbVertex
100
AcDb2dVertex
 10
112.7932904073147
 20
216.4813896141469
 30
0.0
  0
SEQEND
  5
430
330
42D
100
AcDbEntity
  8
CSLAYER1
 62
     4
420
    65535
370
    25
  0
ENDBLK
  5
42C
330
429
100
AcDbEntity
  8
0
100
AcDbBlockEnd
  0
BLOCK
  5
433
330
431
100
AcDbEntity
  8
0
100
AcDbBlockBegin
  2
block 137
 70
     0
 10
0.0
 20
0.0
 30
0.0
  3
block 137
  1

  0
POLYLINE
  5
435
330
431
100
AcDbEntity
  8
CSLAYER1
 62
     4
420
    65535
370
    25
100
AcDb2dPolyline
 66
     1
 10
0.0
 20
0.0
 30
0.0
  0
VERTEX
  5
436
330
435
100
AcDbEntity
  8
CSLAYER1
 62
     4
420
    65535
370
    25
100
AcDbVertex
100
AcDb2dVertex
 10
113.5697474073145
 20
219.3791666141469
 30
0.0
  0
VERTEX
  5
437
330
435
100
AcDbEntity
  8
CSLAYER1
 62
     4
420
    65535
370
    25
100
AcDbVertex
100
AcDb2dVertex
 10
114.3462044073145
 20
216.4813896141469
 30
0.0
  0
SEQEND
  5
438
330
435
100
AcDbEntity
  8
CSLAYER1
 62
     4
420
    65535
370
    25
  0
ENDBLK
  5
434
330
431
100
AcDbEntity
  8
0
100
AcDbBlockEnd
  0
BLOCK
  5
43B
330
439
100
AcDbEntity
  8
0
100
AcDbBlockBegin
  2
block 138
 70
     0
 10
0.0
 20
0.0
 30
0.0
  3
block 138
  1

  0
POLYLINE
  5
43D
330
439
100
AcDbEntity
  8
CSLAYER1
370
     0
100
AcDb2dPolyline
 66
     1
 10
0.0
 20
0.0
 30
0.0
  0
VERTEX
  5
43E
330
43D
100
AcDbEntity
  8
CSLAYER1
370
     0
100
AcDbVertex
100
AcDb2dVertex
 10
204.0194444073143
 20
138.0791666141469
 30
0.0
  0
VERTEX
  5
43F
330
43D
100
AcDbEntity
  8
CSLAYER1
370
     0
100
AcDbVertex
100
AcDb2dVertex
 10
204.0194444073143
 20
138.0791666141469
 30
0.0
  0
SEQEND
  5
440
330
43D
100
AcDbEntity
  8
CSLAYER1
370
     0
  0
ENDBLK
  5
43C
330
439
100
AcDbEntity
  8
0
100
AcDbBlockEnd
  0
BLOCK
  5
443
330
441
100
AcDbEntity
  8
0
100
AcDbBlockBegin
  2
block 139
 70
     0
 10
0.0
 20
0.0
 30
0.0
  3
block 139
  1

  0
POLYLINE
  5
445
330
441
100
AcDbEntity
  8
CSLAYER1
370
     0
100
AcDb2dPolyline
 66
     1
 10
0.0
 20
0.0
 30
0.0
  0
VERTEX
  5
446
330
445
100
AcDbEntity
  8
CSLAYER1
370
     0
100
AcDbVertex
100
AcDb2dVertex
 10
280.0194444073144
 20
129.5791666141469
 30
0.0
  0
VERTEX
  5
447
330
445
100
AcDbEntity
  8
CSLAYER1
370
     0
100
AcDbVertex
100
AcDb2dVertex
 10
280.0194444073144
 20
129.5791666141469
 30
0.0
  0
SEQEND
  5
448
330
445
100
AcDbEntity
  8
CSLAYER1
370
     0
  0
ENDBLK
  5
444
330
441
100
AcDbEntity
  8
0
100
AcDbBlockEnd
  0
BLOCK
  5
44B
330
449
100
AcDbEntity
  8
0
100
AcDbBlockBegin
  2
block 140
 70
     0
 10
0.0
 20
0.0
 30
0.0
  3
block 140
  1

  0
POLYLINE
  5
44D
330
449
100
AcDbEntity
  8
CSLAYER1
370
     0
100
AcDb2dPolyline
 66
     1
 10
0.0
 20
0.0
 30
0.0
  0
VERTEX
  5
44E
330
44D
100
AcDbEntity
  8
CSLAYER1
370
     0
100
AcDbVertex
100
AcDb2dVertex
 10
257.0194444073149
 20
139.0791666141469
 30
0.0
  0
VERTEX
  5
44F
330
44D
100
AcDbEntity
  8
CSLAYER1
370
     0
100
AcDbVertex
100
AcDb2dVertex
 10
257.0194444073149
 20
139.0791666141469
 30
0.0
  0
SEQEND
  5
450
330
44D
100
AcDbEntity
  8
CSLAYER1
370
     0
  0
ENDBLK
  5
44C
330
449
100
AcDbEntity
  8
0
100
AcDbBlockEnd
  0
BLOCK
  5
453
330
451
100
AcDbEntity
  8
0
100
AcDbBlockBegin
  2
block 141
 70
     0
 10
0.0
 20
0.0
 30
0.0
  3
block 141
  1

  0
POLYLINE
  5
455
330
451
100
AcDbEntity
  8
CSLAYER1
370
     0
100
AcDb2dPolyline
 66
     1
 10
0.0
 20
0.0
 30
0.0
  0
VERTEX
  5
456
330
455
100
AcDbEntity
  8
CSLAYER1
370
     0
100
AcDbVertex
100
AcDb2dVertex
 10
257.0194444073149
 20
131.0791666141467
 30
0.0
  0
VERTEX
  5
457
330
455
100
AcDbEntity
  8
CSLAYER1
370
     0
100
AcDbVertex
100
AcDb2dVertex
 10
257.0194444073149
 20
131.0791666141467
 30
0.0
  0
SEQEND
  5
458
330
455
100
AcDbEntity
  8
CSLAYER1
370
     0
  0
ENDBLK
  5
454
330
451
100
AcDbEntity
  8
0
100
AcDbBlockEnd
  0
BLOCK
  5
45B
330
459
100
AcDbEntity
  8
0
100
AcDbBlockBegin
  2
block 142
 70
     0
 10
0.0
 20
0.0
 30
0.0
  3
block 142
  1

  0
POLYLINE
  5
45D
330
459
100
AcDbEntity
  8
CSLAYER1
370
     0
100
AcDb2dPolyline
 66
     1
 10
0.0
 20
0.0
 30
0.0
  0
VERTEX
  5
45E
330
45D
100
AcDbEntity
  8
CSLAYER1
370
     0
100
AcDbVertex
100
AcDb2dVertex
 10
257.0194444073149
 20
120.0791666141469
 30
0.0
  0
VERTEX
  5
45F
330
45D
100
AcDbEntity
  8
CSLAYER1
370
     0
100
AcDbVertex
100
AcDb2dVertex
 10
257.0194444073149
 20
120.0791666141469
 30
0.0
  0
SEQEND
  5
460
330
45D
100
AcDbEntity
  8
CSLAYER1
370
     0
  0
ENDBLK
  5
45C
330
459
100
AcDbEntity
  8
0
100
AcDbBlockEnd
  0
BLOCK
  5
463
330
461
100
AcDbEntity
  8
0
100
AcDbBlockBegin
  2
block 143
 70
     0
 10
0.0
 20
0.0
 30
0.0
  3
block 143
  1

  0
POLYLINE
  5
465
330
461
100
AcDbEntity
  8
CSLAYER1
370
     0
100
AcDb2dPolyline
 66
     1
 10
0.0
 20
0.0
 30
0.0
  0
VERTEX
  5
466
330
465
100
AcDbEntity
  8
CSLAYER1
370
     0
100
AcDbVertex
100
AcDb2dVertex
 10
205.0194444073143
 20
127.0791666141472
 30
0.0
  0
VERTEX
  5
467
330
465
100
AcDbEntity
  8
CSLAYER1
370
     0
100
AcDbVertex
100
AcDb2dVertex
 10
205.0194444073143
 20
127.0791666141472
 30
0.0
  0
SEQEND
  5
468
330
465
100
AcDbEntity
  8
CSLAYER1
370
     0
  0
ENDBLK
  5
464
330
461
100
AcDbEntity
  8
0
100
AcDbBlockEnd
  0
BLOCK
  5
46B
330
469
100
AcDbEntity
  8
0
100
AcDbBlockBegin
  2
block 144
 70
     0
 10
0.0
 20
0.0
 30
0.0
  3
block 144
  1

  0
POLYLINE
  5
46D
330
469
100
AcDbEntity
  8
CSLAYER1
370
     0
100
AcDb2dPolyline
 66
     1
 10
0.0
 20
0.0
 30
0.0
  0
VERTEX
  5
46E
330
46D
100
AcDbEntity
  8
CSLAYER1
370
     0
100
AcDbVertex
100
AcDb2dVertex
 10
205.0194444073143
 20
117.0791666141468
 30
0.0
  0
VERTEX
  5
46F
330
46D
100
AcDbEntity
  8
CSLAYER1
370
     0
100
AcDbVertex
100
AcDb2dVertex
 10
205.0194444073143
 20
117.0791666141468
 30
0.0
  0
SEQEND
  5
470
330
46D
100
AcDbEntity
  8
CSLAYER1
370
     0
  0
ENDBLK
  5
46C
330
469
100
AcDbEntity
  8
0
100
AcDbBlockEnd
  0
BLOCK
  5
473
330
471
100
AcDbEntity
  8
0
100
AcDbBlockBegin
  2
block 145
 70
     0
 10
0.0
 20
0.0
 30
0.0
  3
block 145
  1

  0
POLYLINE
  5
475
330
471
100
AcDbEntity
  8
CSLAYER1
 62
     4
420
    65535
370
    25
100
AcDb2dPolyline
 66
     1
 10
0.0
 20
0.0
 30
0.0
  0
VERTEX
  5
476
330
475
100
AcDbEntity
  8
CSLAYER1
 62
     4
420
    65535
370
    25
100
AcDbVertex
100
AcDb2dVertex
 10
236.4866404073147
 20
262.1159986141467
 30
0.0
  0
VERTEX
  5
477
330
475
100
AcDbEntity
  8
CSLAYER1
 62
     4
420
    65535
370
    25
100
AcDbVertex
100
AcDb2dVertex
 10
244.6738124073143
 20
284.6100706141468
 30
0.0
  0
SEQEND
  5
478
330
475
100
AcDbEntity
  8
CSLAYER1
 62
     4
420
    65535
370
    25
  0
ENDBLK
  5
474
330
471
100
AcDbEntity
  8
0
100
AcDbBlockEnd
  0
BLOCK
  5
47B
330
479
100
AcDbEntity
  8
0
100
AcDbBlockBegin
  2
block 146
 70
     0
 10
0.0
 20
0.0
 30
0.0
  3
block 146
  1

  0
SPLINE
  5
47D
330
479
100
AcDbEntity
  8
CSLAYER1
 62
     4
420
    65535
370
    25
100
AcDbSpline
210
0.0
220
0.0
230
1.0
 70
    11
 71
     3
 72
    20
 73
    16
 74
     0
 42
0.0000000001
 43
0.0000000001
 12
1.0
 22
0.0
 32
0.0
 13
1.0
 23
0.0
 33
0.0
 40
0.0
 40
0.0
 40
0.0
 40
0.0
 40
1.0
 40
1.0
 40
1.0
 40
2.0
 40
2.0
 40
2.0
 40
3.0
 40
3.0
 40
3.0
 40
4.0
 40
4.0
 40
4.0
 40
5.0
 40
5.0
 40
5.0
 40
5.0
 10
236.1866404073143
 20
262.1159986141467
 30
0.0
 10
236.1866404073143
 20
262.281684039096
 30
0.0
 10
236.3209549823651
 20
262.415998614147
 30
0.0
 10
236.4866404073147
 20
262.415998614147
 30
0.0
 10
236.6523258322636
 20
262.415998614147
 30
0.0
 10
236.7866404073144
 20
262.281684039096
 30
0.0
 10
236.7866404073144
 20
262.1159986141467
 30
0.0
 10
236.7866404073144
 20
261.9503131891977
 30
0.0
 10
236.6523258322636
 20
261.815998614147
 30
0.0
 10
236.4866404073147
 20
261.815998614147
 30
0.0
 10
236.3209549823651
 20
261.815998614147
 30
0.0
 10
236.1866404073143
 20
261.9503131891977
 30
0.0
 10
236.1866404073143
 20
262.1159986141467
 30
0.0
 10
236.1866404073143
 20
262.1159986141467
 30
0.0
 10
236.1866404073143
 20
262.1159986141467
 30
0.0
 10
236.1866404073143
 20
262.1159986141467
 30
0.0
  0
ENDBLK
  5
47C
330
479
100
AcDbEntity
  8
0
100
AcDbBlockEnd
  0
BLOCK
  5
480
330
47E
100
AcDbEntity
  8
0
100
AcDbBlockBegin
  2
block 147
 70
     0
 10
0.0
 20
0.0
 30
0.0
  3
block 147
  1

  0
SPLINE
  5
482
330
47E
100
AcDbEntity
  8
CSLAYER1
 62
     4
420
    65535
370
    25
100
AcDbSpline
210
0.0
220
0.0
230
1.0
 70
    11
 71
     3
 72
    20
 73
    16
 74
     0
 42
0.0000000001
 43
0.0000000001
 12
1.0
 22
0.0
 32
0.0
 13
1.0
 23
0.0
 33
0.0
 40
0.0
 40
0.0
 40
0.0
 40
0.0
 40
1.0
 40
1.0
 40
1.0
 40
2.0
 40
2.0
 40
2.0
 40
3.0
 40
3.0
 40
3.0
 40
4.0
 40
4.0
 40
4.0
 40
5.0
 40
5.0
 40
5.0
 40
5.0
 10
236.3366404073148
 20
262.1159986141467
 30
0.0
 10
236.3366404073148
 20
262.1988413266215
 30
0.0
 10
236.4037976948399
 20
262.2659986141469
 30
0.0
 10
236.4866404073147
 20
262.2659986141469
 30
0.0
 10
236.5694831197895
 20
262.2659986141469
 30
0.0
 10
236.6366404073145
 20
262.1988413266215
 30
0.0
 10
236.6366404073145
 20
262.1159986141467
 30
0.0
 10
236.6366404073145
 20
262.0331559016722
 30
0.0
 10
236.5694831197895
 20
261.9659986141469
 30
0.0
 10
236.4866404073147
 20
261.9659986141469
 30
0.0
 10
236.4037976948399
 20
261.9659986141469
 30
0.0
 10
236.3366404073148
 20
262.0331559016722
 30
0.0
 10
236.3366404073148
 20
262.1159986141467
 30
0.0
 10
236.3366404073148
 20
262.1159986141467
 30
0.0
 10
236.3366404073148
 20
262.1159986141467
 30
0.0
 10
236.3366404073148
 20
262.1159986141467
 30
0.0
  0
ENDBLK
  5
481
330
47E
100
AcDbEntity
  8
0
100
AcDbBlockEnd
  0
BLOCK
  5
485
330
483
100
AcDbEntity
  8
0
100
AcDbBlockBegin
  2
block 148
 70
     0
 10
0.0
 20
0.0
 30
0.0
  3
block 148
  1

  0
POLYLINE
  5
487
330
483
100
AcDbEntity
  8
CSLAYER1
 62
     4
420
    65535
370
    25
100
AcDb2dPolyline
 66
     1
 10
0.0
 20
0.0
 30
0.0
  0
VERTEX
  5
488
330
487
100
AcDbEntity
  8
CSLAYER1
 62
     4
420
    65535
370
    25
100
AcDbVertex
100
AcDb2dVertex
 10
244.6738124073143
 20
284.6100706141468
 30
0.0
  0
VERTEX
  5
489
330
487
100
AcDbEntity
  8
CSLAYER1
 62
     4
420
    65535
370
    25
100
AcDbVertex
100
AcDb2dVertex
 10
281.8738134073143
 20
284.6100706141468
 30
0.0
  0
SEQEND
  5
48A
330
487
100
AcDbEntity
  8
CSLAYER1
 62
     4
420
    65535
370
    25
  0
ENDBLK
  5
486
330
483
100
AcDbEntity
  8
0
100
AcDbBlockEnd
  0
BLOCK
  5
48D
330
48B
100
AcDbEntity
  8
0
100
AcDbBlockBegin
  2
block 149
 70
     0
 10
0.0
 20
0.0
 30
0.0
  3
block 149
  1

  0
MTEXT
  5
48F
330
48B
100
AcDbEntity
  8
CSLAYER1
 62
     4
420
    65535
100
AcDbMText
 10
245.6738012158283
 20
285.1101064548722
 30
0.0
 40
3.200000026368342
 41
0.0
 46
0.0
 71
     7
 72
     1
  1
\fKozuka Gothic Pr6N R|b0|i0|c0|p34;\W0.996111;荳荘荧莓郚遇閔药荴蹤迣
 73
     1
 44
1.0
  0
ENDBLK
  5
48E
330
48B
100
AcDbEntity
  8
0
100
AcDbBlockEnd
  0
BLOCK
  5
492
330
490
100
AcDbEntity
  8
0
100
AcDbBlockBegin
  2
block 150
 70
     0
 10
0.0
 20
0.0
 30
0.0
  3
block 150
  1

  0
POLYLINE
  5
494
330
490
100
AcDbEntity
  8
CSLAYER1
 62
     3
420
    65280
370
    25
100
AcDb2dPolyline
 66
     1
 10
0.0
 20
0.0
 30
0.0
  0
VERTEX
  5
495
330
494
100
AcDbEntity
  8
CSLAYER1
 62
     3
420
    65280
370
    25
100
AcDbVertex
100
AcDb2dVertex
 10
32.63173040731446
 20
157.3791666141466
 30
0.0
  0
VERTEX
  5
496
330
494
100
AcDbEntity
  8
CSLAYER1
 62
     3
420
    65280
370
    25
100
AcDbVertex
100
AcDb2dVertex
 10
64.63173040731462
 20
157.3791666141466
 30
0.0
  0
SEQEND
  5
497
330
494
100
AcDbEntity
  8
CSLAYER1
 62
     3
420
    65280
370
    25
  0
ENDBLK
  5
493
330
490
100
AcDbEntity
  8
0
100
AcDbBlockEnd
  0
BLOCK
  5
49A
330
498
100
AcDbEntity
  8
0
100
AcDbBlockBegin
  2
block 151
 70
     0
 10
0.0
 20
0.0
 30
0.0
  3
block 151
  1

  0
POLYLINE
  5
49C
330
498
100
AcDbEntity
  8
CSLAYER1
 62
     3
420
    65280
370
    25
100
AcDb2dPolyline
 66
     1
 10
0.0
 20
0.0
 30
0.0
  0
VERTEX
  5
49D
330
49C
100
AcDbEntity
  8
CSLAYER1
 62
     3
420
    65280
370
    25
100
AcDbVertex
100
AcDb2dVertex
 10
64.63173040731462
 20
157.3791666141466
 30
0.0
  0
VERTEX
  5
49E
330
49C
100
AcDbEntity
  8
CSLAYER1
 62
     3
420
    65280
370
    25
100
AcDbVertex
100
AcDb2dVertex
 10
64.63173040731462
 20
199.7832486141465
 30
0.0
  0
SEQEND
  5
49F
330
49C
100
AcDbEntity
  8
CSLAYER1
 62
     3
420
    65280
370
    25
  0
ENDBLK
  5
49B
330
498
100
AcDbEntity
  8
0
100
AcDbBlockEnd
  0
BLOCK
  5
4A2
330
4A0
100
AcDbEntity
  8
0
100
AcDbBlockBegin
  2
block 152
 70
     0
 10
0.0
 20
0.0
 30
0.0
  3
block 152
  1

  0
SPLINE
  5
4A4
330
4A0
100
AcDbEntity
  8
CSLAYER1
 62
     3
420
    65280
370
    25
100
AcDbSpline
210
0.0
220
0.0
230
1.0
 70
     8
 71
     3
 72
     8
 73
     4
 74
     0
 42
0.0000000001
 43
0.0000000001
 12
1.0
 22
0.0
 32
0.0
 13
1.0
 23
0.0
 33
0.0
 40
0.0
 40
0.0
 40
0.0
 40
0.0
 40
1.0
 40
1.0
 40
1.0
 40
1.0
 10
64.63173040731462
 20
199.7832486141465
 30
0.0
 10
64.63173040731462
 20
209.2870875169198
 30
0.0
 10
57.94355276094197
 20
217.4783987834819
 30
0.0
 10
48.63173039609138
 20
219.3791665587031
 30
0.0
  0
ENDBLK
  5
4A3
330
4A0
100
AcDbEntity
  8
0
100
AcDbBlockEnd
  0
BLOCK
  5
4A7
330
4A5
100
AcDbEntity
  8
0
100
AcDbBlockBegin
  2
block 153
 70
     0
 10
0.0
 20
0.0
 30
0.0
  3
block 153
  1

  0
POLYLINE
  5
4A9
330
4A5
100
AcDbEntity
  8
CSLAYER1
 62
     3
420
    65280
370
    25
100
AcDb2dPolyline
 66
     1
 10
0.0
 20
0.0
 30
0.0
  0
VERTEX
  5
4AA
330
4A9
100
AcDbEntity
  8
CSLAYER1
 62
     3
420
    65280
370
    25
100
AcDbVertex
100
AcDb2dVertex
 10
48.6317304073147
 20
219.3791666141469
 30
0.0
  0
VERTEX
  5
4AB
330
4A9
100
AcDbEntity
  8
CSLAYER1
 62
     3
420
    65280
370
    25
100
AcDbVertex
100
AcDb2dVertex
 10
48.6317304073147
 20
183.3791666141469
 30
0.0
  0
SEQEND
  5
4AC
330
4A9
100
AcDbEntity
  8
CSLAYER1
 62
     3
420
    65280
370
    25
  0
ENDBLK
  5
4A8
330
4A5
100
AcDbEntity
  8
0
100
AcDbBlockEnd
  0
BLOCK
  5
4AF
330
4AD
100
AcDbEntity
  8
0
100
AcDbBlockBegin
  2
block 154
 70
     0
 10
0.0
 20
0.0
 30
0.0
  3
block 154
  1

  0
POLYLINE
  5
4B1
330
4AD
100
AcDbEntity
  8
CSLAYER1
 62
     3
420
    65280
370
    25
100
AcDb2dPolyline
 66
     1
 10
0.0
 20
0.0
 30
0.0
  0
VERTEX
  5
4B2
330
4B1
100
AcDbEntity
  8
CSLAYER1
 62
     3
420
    65280
370
    25
100
AcDbVertex
100
AcDb2dVertex
 10
48.13173040731468
 20
183.3791666141469
 30
0.0
  0
VERTEX
  5
4B3
330
4B1
100
AcDbEntity
  8
CSLAYER1
 62
     3
420
    65280
370
    25
100
AcDbVertex
100
AcDb2dVertex
 10
48.13173040731468
 20
160.3791666141467
 30
0.0
  0
SEQEND
  5
4B4
330
4B1
100
AcDbEntity
  8
CSLAYER1
 62
     3
420
    65280
370
    25
  0
ENDBLK
  5
4B0
330
4AD
100
AcDbEntity
  8
0
100
AcDbBlockEnd
  0
BLOCK
  5
4B7
330
4B5
100
AcDbEntity
  8
0
100
AcDbBlockBegin
  2
block 155
 70
     0
 10
0.0
 20
0.0
 30
0.0
  3
block 155
  1

  0
POLYLINE
  5
4B9
330
4B5
100
AcDbEntity
  8
CSLAYER1
 62
     3
420
    65280
370
    25
100
AcDb2dPolyline
 66
     1
 10
0.0
 20
0.0
 30
0.0
  0
VERTEX
  5
4BA
330
4B9
100
AcDbEntity
  8
CSLAYER1
 62
     3
420
    65280
370
    25
100
AcDbVertex
100
AcDb2dVertex
 10
48.13173040731468
 20
160.3791666141467
 30
0.0
  0
VERTEX
  5
4BB
330
4B9
100
AcDbEntity
  8
CSLAYER1
 62
     3
420
    65280
370
    25
100
AcDbVertex
100
AcDb2dVertex
 10
49.13173040731472
 20
160.3791666141467
 30
0.0
  0
SEQEND
  5
4BC
330
4B9
100
AcDbEntity
  8
CSLAYER1
 62
     3
420
    65280
370
    25
  0
ENDBLK
  5
4B8
330
4B5
100
AcDbEntity
  8
0
100
AcDbBlockEnd
  0
BLOCK
  5
4BF
330
4BD
100
AcDbEntity
  8
0
100
AcDbBlockBegin
  2
block 156
 70
     0
 10
0.0
 20
0.0
 30
0.0
  3
block 156
  1

  0
POLYLINE
  5
4C1
330
4BD
100
AcDbEntity
  8
CSLAYER1
 62
     3
420
    65280
370
    25
100
AcDb2dPolyline
 66
     1
 10
0.0
 20
0.0
 30
0.0
  0
VERTEX
  5
4C2
330
4C1
100
AcDbEntity
  8
CSLAYER1
 62
     3
420
    65280
370
    25
100
AcDbVertex
100
AcDb2dVertex
 10
49.13173040731472
 20
160.3791666141467
 30
0.0
  0
VERTEX
  5
4C3
330
4C1
100
AcDbEntity
  8
CSLAYER1
 62
     3
420
    65280
370
    25
100
AcDbVertex
100
AcDb2dVertex
 10
49.13173040731472
 20
183.3791666141469
 30
0.0
  0
SEQEND
  5
4C4
330
4C1
100
AcDbEntity
  8
CSLAYER1
 62
     3
420
    65280
370
    25
  0
ENDBLK
  5
4C0
330
4BD
100
AcDbEntity
  8
0
100
AcDbBlockEnd
  0
BLOCK
  5
4C7
330
4C5
100
AcDbEntity
  8
0
100
AcDbBlockBegin
  2
block 157
 70
     0
 10
0.0
 20
0.0
 30
0.0
  3
block 157
  1

  0
POLYLINE
  5
4C9
330
4C5
100
AcDbEntity
  8
CSLAYER1
 62
     3
420
    65280
370
    25
100
AcDb2dPolyline
 66
     1
 10
0.0
 20
0.0
 30
0.0
  0
VERTEX
  5
4CA
330
4C9
100
AcDbEntity
  8
CSLAYER1
 62
     3
420
    65280
370
    25
100
AcDbVertex
100
AcDb2dVertex
 10
49.13173040731472
 20
183.3791666141469
 30
0.0
  0
VERTEX
  5
4CB
330
4C9
100
AcDbEntity
  8
CSLAYER1
 62
     3
420
    65280
370
    25
100
AcDbVertex
100
AcDb2dVertex
 10
48.13173040731468
 20
183.3791666141469
 30
0.0
  0
SEQEND
  5
4CC
330
4C9
100
AcDbEntity
  8
CSLAYER1
 62
     3
420
    65280
370
    25
  0
ENDBLK
  5
4C8
330
4C5
100
AcDbEntity
  8
0
100
AcDbBlockEnd
  0
BLOCK
  5
4CF
330
4CD
100
AcDbEntity
  8
0
100
AcDbBlockBegin
  2
block 158
 70
     0
 10
0.0
 20
0.0
 30
0.0
  3
block 158
  1

  0
POLYLINE
  5
4D1
330
4CD
100
AcDbEntity
  8
CSLAYER1
 62
     3
420
    65280
370
    25
100
AcDb2dPolyline
 66
     1
 10
0.0
 20
0.0
 30
0.0
  0
VERTEX
  5
4D2
330
4D1
100
AcDbEntity
  8
CSLAYER1
 62
     3
420
    65280
370
    25
100
AcDbVertex
100
AcDb2dVertex
 10
32.63173040731446
 20
199.7832486141465
 30
0.0
  0
VERTEX
  5
4D3
330
4D1
100
AcDbEntity
  8
CSLAYER1
 62
     3
420
    65280
370
    25
100
AcDbVertex
100
AcDb2dVertex
 10
32.63173040731446
 20
157.3791666141466
 30
0.0
  0
SEQEND
  5
4D4
330
4D1
100
AcDbEntity
  8
CSLAYER1
 62
     3
420
    65280
370
    25
  0
ENDBLK
  5
4D0
330
4CD
100
AcDbEntity
  8
0
100
AcDbBlockEnd
  0
BLOCK
  5
4D7
330
4D5
100
AcDbEntity
  8
0
100
AcDbBlockBegin
  2
block 159
 70
     0
 10
0.0
 20
0.0
 30
0.0
  3
block 159
  1

  0
POLYLINE
  5
4D9
330
4D5
100
AcDbEntity
  8
CSLAYER1
 62
     3
420
    65280
370
    25
100
AcDb2dPolyline
 66
     1
 10
0.0
 20
0.0
 30
0.0
  0
VERTEX
  5
4DA
330
4D9
100
AcDbEntity
  8
CSLAYER1
 62
     3
420
    65280
370
    25
100
AcDbVertex
100
AcDb2dVertex
 10
48.6317304073147
 20
157.3791666141466
 30
0.0
  0
VERTEX
  5
4DB
330
4D9
100
AcDbEntity
  8
CSLAYER1
 62
     3
420
    65280
370
    25
100
AcDbVertex
100
AcDb2dVertex
 10
48.6317304073147
 20
160.3791666141467
 30
0.0
  0
SEQEND
  5
4DC
330
4D9
100
AcDbEntity
  8
CSLAYER1
 62
     3
420
    65280
370
    25
  0
ENDBLK
  5
4D8
330
4D5
100
AcDbEntity
  8
0
100
AcDbBlockEnd
  0
BLOCK
  5
4DF
330
4DD
100
AcDbEntity
  8
0
100
AcDbBlockBegin
  2
block 160
 70
     0
 10
0.0
 20
0.0
 30
0.0
  3
block 160
  1

  0
POLYLINE
  5
4E1
330
4DD
100
AcDbEntity
  8
CSLAYER1
 62
     3
420
    65280
370
    25
100
AcDb2dPolyline
 66
     1
 10
0.0
 20
0.0
 30
0.0
  0
VERTEX
  5
4E2
330
4E1
100
AcDbEntity
  8
CSLAYER1
 62
     3
420
    65280
370
    25
100
AcDbVertex
100
AcDb2dVertex
 10
98.01944440731474
 20
157.3791666141466
 30
0.0
  0
VERTEX
  5
4E3
330
4E1
100
AcDbEntity
  8
CSLAYER1
 62
     3
420
    65280
370
    25
100
AcDbVertex
100
AcDb2dVertex
 10
98.01944440731474
 20
219.3791666141469
 30
0.0
  0
SEQEND
  5
4E4
330
4E1
100
AcDbEntity
  8
CSLAYER1
 62
     3
420
    65280
370
    25
  0
ENDBLK
  5
4E0
330
4DD
100
AcDbEntity
  8
0
100
AcDbBlockEnd
  0
BLOCK
  5
4E7
330
4E5
100
AcDbEntity
  8
0
100
AcDbBlockBegin
  2
block 161
 70
     0
 10
0.0
 20
0.0
 30
0.0
  3
block 161
  1

  0
POLYLINE
  5
4E9
330
4E5
100
AcDbEntity
  8
CSLAYER1
 62
     3
420
    65280
370
    25
100
AcDb2dPolyline
 66
     1
 10
0.0
 20
0.0
 30
0.0
  0
VERTEX
  5
4EA
330
4E9
100
AcDbEntity
  8
CSLAYER1
 62
     3
420
    65280
370
    25
100
AcDbVertex
100
AcDb2dVertex
 10
98.01944440731474
 20
219.3791666141469
 30
0.0
  0
VERTEX
  5
4EB
330
4E9
100
AcDbEntity
  8
CSLAYER1
 62
     3
420
    65280
370
    25
100
AcDbVertex
100
AcDb2dVertex
 10
99.51944440731447
 20
219.3791666141469
 30
0.0
  0
SEQEND
  5
4EC
330
4E9
100
AcDbEntity
  8
CSLAYER1
 62
     3
420
    65280
370
    25
  0
ENDBLK
  5
4E8
330
4E5
100
AcDbEntity
  8
0
100
AcDbBlockEnd
  0
BLOCK
  5
4EF
330
4ED
100
AcDbEntity
  8
0
100
AcDbBlockBegin
  2
block 162
 70
     0
 10
0.0
 20
0.0
 30
0.0
  3
block 162
  1

  0
POLYLINE
  5
4F1
330
4ED
100
AcDbEntity
  8
CSLAYER1
 62
     3
420
    65280
370
    25
100
AcDb2dPolyline
 66
     1
 10
0.0
 20
0.0
 30
0.0
  0
VERTEX
  5
4F2
330
4F1
100
AcDbEntity
  8
CSLAYER1
 62
     3
420
    65280
370
    25
100
AcDbVertex
100
AcDb2dVertex
 10
98.01944440731474
 20
234.0791666141468
 30
0.0
  0
VERTEX
  5
4F3
330
4F1
100
AcDbEntity
  8
CSLAYER1
 62
     3
420
    65280
370
    25
100
AcDbVertex
100
AcDb2dVertex
 10
178.0194444073147
 20
234.0791666141468
 30
0.0
  0
SEQEND
  5
4F4
330
4F1
100
AcDbEntity
  8
CSLAYER1
 62
     3
420
    65280
370
    25
  0
ENDBLK
  5
4F0
330
4ED
100
AcDbEntity
  8
0
100
AcDbBlockEnd
  0
BLOCK
  5
4F7
330
4F5
100
AcDbEntity
  8
0
100
AcDbBlockBegin
  2
block 163
 70
     0
 10
0.0
 20
0.0
 30
0.0
  3
block 163
  1

  0
POLYLINE
  5
4F9
330
4F5
100
AcDbEntity
  8
CSLAYER1
 62
     3
420
    65280
370
    25
100
AcDb2dPolyline
 66
     1
 10
0.0
 20
0.0
 30
0.0
  0
VERTEX
  5
4FA
330
4F9
100
AcDbEntity
  8
CSLAYER1
 62
     3
420
    65280
370
    25
100
AcDbVertex
100
AcDb2dVertex
 10
178.0194444073147
 20
234.0791666141468
 30
0.0
  0
VERTEX
  5
4FB
330
4F9
100
AcDbEntity
  8
CSLAYER1
 62
     3
420
    65280
370
    25
100
AcDbVertex
100
AcDb2dVertex
 10
232.9713574073144
 20
239.2309086141468
 30
0.0
  0
SEQEND
  5
4FC
330
4F9
100
AcDbEntity
  8
CSLAYER1
 62
     3
420
    65280
370
    25
  0
ENDBLK
  5
4F8
330
4F5
100
AcDbEntity
  8
0
100
AcDbBlockEnd
  0
BLOCK
  5
4FF
330
4FD
100
AcDbEntity
  8
0
100
AcDbBlockBegin
  2
block 164
 70
     0
 10
0.0
 20
0.0
 30
0.0
  3
block 164
  1

  0
SPLINE
  5
501
330
4FD
100
AcDbEntity
  8
CSLAYER1
 62
     3
420
    65280
370
    25
100
AcDbSpline
210
0.0
220
0.0
230
1.0
 70
     8
 71
     3
 72
     8
 73
     4
 74
     0
 42
0.0000000001
 43
0.0000000001
 12
1.0
 22
0.0
 32
0.0
 13
1.0
 23
0.0
 33
0.0
 40
0.0
 40
0.0
 40
0.0
 40
0.0
 40
1.0
 40
1.0
 40
1.0
 40
1.0
 10
232.9713564867984
 20
239.2309083528556
 30
0.0
 10
237.8792054053739
 20
239.6910191852691
 30
0.0
 10
241.7196968520165
 20
243.6589190934545
 30
0.0
 10
242.019443970934
 20
248.5791665110519
 30
0.0
  0
ENDBLK
  5
500
330
4FD
100
AcDbEntity
  8
0
100
AcDbBlockEnd
  0
BLOCK
  5
504
330
502
100
AcDbEntity
  8
0
100
AcDbBlockBegin
  2
block 165
 70
     0
 10
0.0
 20
0.0
 30
0.0
  3
block 165
  1

  0
POLYLINE
  5
506
330
502
100
AcDbEntity
  8
CSLAYER1
 62
     3
420
    65280
370
    25
100
AcDb2dPolyline
 66
     1
 10
0.0
 20
0.0
 30
0.0
  0
VERTEX
  5
507
330
506
100
AcDbEntity
  8
CSLAYER1
 62
     3
420
    65280
370
    25
100
AcDbVertex
100
AcDb2dVertex
 10
242.0194444073144
 20
248.579166614147
 30
0.0
  0
VERTEX
  5
508
330
506
100
AcDbEntity
  8
CSLAYER1
 62
     3
420
    65280
370
    25
100
AcDbVertex
100
AcDb2dVertex
 10
175.8056754073146
 20
248.579166614147
 30
0.0
  0
SEQEND
  5
509
330
506
100
AcDbEntity
  8
CSLAYER1
 62
     3
420
    65280
370
    25
  0
ENDBLK
  5
505
330
502
100
AcDbEntity
  8
0
100
AcDbBlockEnd
  0
BLOCK
  5
50C
330
50A
100
AcDbEntity
  8
0
100
AcDbBlockBegin
  2
block 166
 70
     0
 10
0.0
 20
0.0
 30
0.0
  3
block 166
  1

  0
POLYLINE
  5
50E
330
50A
100
AcDbEntity
  8
CSLAYER1
 62
     3
420
    65280
370
    25
100
AcDb2dPolyline
 66
     1
 10
0.0
 20
0.0
 30
0.0
  0
VERTEX
  5
50F
330
50E
100
AcDbEntity
  8
CSLAYER1
 62
     3
420
    65280
370
    25
100
AcDbVertex
100
AcDb2dVertex
 10
176.3833004073147
 20
248.579166614147
 30
0.0
  0
VERTEX
  5
510
330
50E
100
AcDbEntity
  8
CSLAYER1
 62
     3
420
    65280
370
    25
100
AcDbVertex
100
AcDb2dVertex
 10
171.9502054073147
 20
234.0791666141468
 30
0.0
  0
SEQEND
  5
511
330
50E
100
AcDbEntity
  8
CSLAYER1
 62
     3
420
    65280
370
    25
  0
ENDBLK
  5
50D
330
50A
100
AcDbEntity
  8
0
100
AcDbBlockEnd
  0
BLOCK
  5
514
330
512
100
AcDbEntity
  8
0
100
AcDbBlockBegin
  2
block 167
 70
     0
 10
0.0
 20
0.0
 30
0.0
  3
block 167
  1

  0
SPLINE
  5
516
330
512
100
AcDbEntity
  8
CSLAYER1
 62
     3
420
    65280
370
    25
100
AcDbSpline
210
0.0
220
0.0
230
1.0
 70
     8
 71
     3
 72
     8
 73
     4
 74
     0
 42
0.0000000001
 43
0.0000000001
 12
1.0
 22
0.0
 32
0.0
 13
1.0
 23
0.0
 33
0.0
 40
0.0
 40
0.0
 40
0.0
 40
0.0
 40
1.0
 40
1.0
 40
1.0
 40
1.0
 10
163.76400711092
 20
234.0791666346359
 30
0.0
 10
170.7475176810773
 20
236.5864925354442
 30
0.0
 10
175.2980908520214
 20
243.3334657539553
 30
0.0
 10
175.0062938846396
 20
250.7477059433604
 30
0.0
  0
ENDBLK
  5
515
330
512
100
AcDbEntity
  8
0
100
AcDbBlockEnd
  0
BLOCK
  5
519
330
517
100
AcDbEntity
  8
0
100
AcDbBlockBegin
  2
block 168
 70
     0
 10
0.0
 20
0.0
 30
0.0
  3
block 168
  1

  0
SPLINE
  5
51B
330
517
100
AcDbEntity
  8
CSLAYER1
 62
     3
420
    65280
370
    25
100
AcDbSpline
210
0.0
220
0.0
230
1.0
 70
     8
 71
     3
 72
    11
 73
     7
 74
     0
 42
0.0000000001
 43
0.0000000001
 12
1.0
 22
0.0
 32
0.0
 13
1.0
 23
0.0
 33
0.0
 40
0.0
 40
0.0
 40
0.0
 40
0.0
 40
1.0
 40
1.0
 40
1.0
 40
2.0
 40
2.0
 40
2.0
 40
2.0
 10
175.8056754073146
 20
251.5791666141467
 30
0.0
 10
175.3638476074498
 20
251.5791666141467
 30
0.0
 10
175.0056754073146
 20
251.2209944140115
 30
0.0
 10
175.0056754073146
 20
250.7791666141467
 30
0.0
 10
175.0056754073146
 20
250.7686766796368
 30
0.0
 10
175.0058817299242
 20
250.7581877597454
 30
0.0
 10
175.0062942554403
 20
250.747705939831
 30
0.0
  0
ENDBLK
  5
51A
330
517
100
AcDbEntity
  8
0
100
AcDbBlockEnd
  0
BLOCK
  5
51E
330
51C
100
AcDbEntity
  8
0
100
AcDbBlockBegin
  2
block 169
 70
     0
 10
0.0
 20
0.0
 30
0.0
  3
block 169
  1

  0
POLYLINE
  5
520
330
51C
100
AcDbEntity
  8
CSLAYER1
 62
     3
420
    65280
370
    25
100
AcDb2dPolyline
 66
     1
 10
0.0
 20
0.0
 30
0.0
  0
VERTEX
  5
521
330
520
100
AcDbEntity
  8
CSLAYER1
 62
     3
420
    65280
370
    25
100
AcDbVertex
100
AcDb2dVertex
 10
175.8056754073146
 20
251.5791666141467
 30
0.0
  0
VERTEX
  5
522
330
520
100
AcDbEntity
  8
CSLAYER1
 62
     3
420
    65280
370
    25
100
AcDbVertex
100
AcDb2dVertex
 10
242.0194444073144
 20
251.5791666141467
 30
0.0
  0
SEQEND
  5
523
330
520
100
AcDbEntity
  8
CSLAYER1
 62
     3
420
    65280
370
    25
  0
ENDBLK
  5
51F
330
51C
100
AcDbEntity
  8
0
100
AcDbBlockEnd
  0
BLOCK
  5
526
330
524
100
AcDbEntity
  8
0
100
AcDbBlockBegin
  2
block 170
 70
     0
 10
0.0
 20
0.0
 30
0.0
  3
block 170
  1

  0
SPLINE
  5
528
330
524
100
AcDbEntity
  8
CSLAYER1
 62
     3
420
    65280
370
    25
100
AcDbSpline
210
0.0
220
0.0
230
1.0
 70
     8
 71
     3
 72
     8
 73
     4
 74
     0
 42
0.0000000001
 43
0.0000000001
 12
1.0
 22
0.0
 32
0.0
 13
1.0
 23
0.0
 33
0.0
 40
0.0
 40
0.0
 40
0.0
 40
0.0
 40
1.0
 40
1.0
 40
1.0
 40
1.0
 10
242.019443970934
 20
251.5791667172421
 30
0.0
 10
241.7196968520165
 20
256.4994141348392
 30
0.0
 10
237.8792054053739
 20
260.4673140430247
 30
0.0
 10
232.9713564867984
 20
260.9274248754381
 30
0.0
  0
ENDBLK
  5
527
330
524
100
AcDbEntity
  8
0
100
AcDbBlockEnd
  0
BLOCK
  5
52B
330
529
100
AcDbEntity
  8
0
100
AcDbBlockBegin
  2
block 171
 70
     0
 10
0.0
 20
0.0
 30
0.0
  3
block 171
  1

  0
POLYLINE
  5
52D
330
529
100
AcDbEntity
  8
CSLAYER1
 62
     3
420
    65280
370
    25
100
AcDb2dPolyline
 66
     1
 10
0.0
 20
0.0
 30
0.0
  0
VERTEX
  5
52E
330
52D
100
AcDbEntity
  8
CSLAYER1
 62
     3
420
    65280
370
    25
100
AcDbVertex
100
AcDb2dVertex
 10
232.9713574073144
 20
260.9274246141469
 30
0.0
  0
VERTEX
  5
52F
330
52D
100
AcDbEntity
  8
CSLAYER1
 62
     3
420
    65280
370
    25
100
AcDbVertex
100
AcDb2dVertex
 10
178.0194444073147
 20
266.0791666141469
 30
0.0
  0
SEQEND
  5
530
330
52D
100
AcDbEntity
  8
CSLAYER1
 62
     3
420
    65280
370
    25
  0
ENDBLK
  5
52C
330
529
100
AcDbEntity
  8
0
100
AcDbBlockEnd
  0
BLOCK
  5
533
330
531
100
AcDbEntity
  8
0
100
AcDbBlockBegin
  2
block 172
 70
     0
 10
0.0
 20
0.0
 30
0.0
  3
block 172
  1

  0
POLYLINE
  5
535
330
531
100
AcDbEntity
  8
CSLAYER1
 62
     3
420
    65280
370
    25
100
AcDb2dPolyline
 66
     1
 10
0.0
 20
0.0
 30
0.0
  0
VERTEX
  5
536
330
535
100
AcDbEntity
  8
CSLAYER1
 62
     3
420
    65280
370
    25
100
AcDbVertex
100
AcDb2dVertex
 10
178.0194444073147
 20
266.0791666141469
 30
0.0
  0
VERTEX
  5
537
330
535
100
AcDbEntity
  8
CSLAYER1
 62
     3
420
    65280
370
    25
100
AcDbVertex
100
AcDb2dVertex
 10
98.01944440731474
 20
266.0791666141469
 30
0.0
  0
SEQEND
  5
538
330
535
100
AcDbEntity
  8
CSLAYER1
 62
     3
420
    65280
370
    25
  0
ENDBLK
  5
534
330
531
100
AcDbEntity
  8
0
100
AcDbBlockEnd
  0
BLOCK
  5
53B
330
539
100
AcDbEntity
  8
0
100
AcDbBlockBegin
  2
block 173
 70
     0
 10
0.0
 20
0.0
 30
0.0
  3
block 173
  1

  0
POLYLINE
  5
53D
330
539
100
AcDbEntity
  8
CSLAYER1
 62
     3
420
    65280
370
    25
100
AcDb2dPolyline
 66
     1
 10
0.0
 20
0.0
 30
0.0
  0
VERTEX
  5
53E
330
53D
100
AcDbEntity
  8
CSLAYER1
 62
     3
420
    65280
370
    25
100
AcDbVertex
100
AcDb2dVertex
 10
98.01944440731474
 20
266.0791666141469
 30
0.0
  0
VERTEX
  5
53F
330
53D
100
AcDbEntity
  8
CSLAYER1
 62
     3
420
    65280
370
    25
100
AcDbVertex
100
AcDb2dVertex
 10
98.01944440731474
 20
234.0791666141468
 30
0.0
  0
SEQEND
  5
540
330
53D
100
AcDbEntity
  8
CSLAYER1
 62
     3
420
    65280
370
    25
  0
ENDBLK
  5
53C
330
539
100
AcDbEntity
  8
0
100
AcDbBlockEnd
  0
BLOCK
  5
543
330
541
100
AcDbEntity
  8
0
100
AcDbBlockBegin
  2
block 174
 70
     0
 10
0.0
 20
0.0
 30
0.0
  3
block 174
  1

  0
POLYLINE
  5
545
330
541
100
AcDbEntity
  8
CSLAYER1
 62
     3
420
    65280
370
    25
100
AcDb2dPolyline
 66
     1
 10
0.0
 20
0.0
 30
0.0
  0
VERTEX
  5
546
330
545
100
AcDbEntity
  8
CSLAYER1
 62
     3
420
    65280
370
    25
100
AcDbVertex
100
AcDb2dVertex
 10
106.0194444073147
 20
234.0791666141468
 30
0.0
  0
VERTEX
  5
547
330
545
100
AcDbEntity
  8
CSLAYER1
 62
     3
420
    65280
370
    25
100
AcDbVertex
100
AcDb2dVertex
 10
106.0194444073147
 20
249.579166614147
 30
0.0
  0
SEQEND
  5
548
330
545
100
AcDbEntity
  8
CSLAYER1
 62
     3
420
    65280
370
    25
  0
ENDBLK
  5
544
330
541
100
AcDbEntity
  8
0
100
AcDbBlockEnd
  0
BLOCK
  5
54B
330
549
100
AcDbEntity
  8
0
100
AcDbBlockBegin
  2
block 175
 70
     0
 10
0.0
 20
0.0
 30
0.0
  3
block 175
  1

  0
SPLINE
  5
54D
330
549
100
AcDbEntity
  8
CSLAYER1
 62
     3
420
    65280
370
    25
100
AcDbSpline
210
0.0
220
0.0
230
1.0
 70
     8
 71
     3
 72
     8
 73
     4
 74
     0
 42
0.0000000001
 43
0.0000000001
 12
1.0
 22
0.0
 32
0.0
 13
1.0
 23
0.0
 33
0.0
 40
0.0
 40
0.0
 40
0.0
 40
0.0
 40
1.0
 40
1.0
 40
1.0
 40
1.0
 10
106.01944437303
 20
262.438373684876
 30
0.0
 10
102.6530467423647
 20
260.1231458703151
 30
0.0
 10
100.3767273017593
 20
256.5348978440927
 30
0.0
 10
99.71655404562438
 20
252.5028903896168
 30
0.0
  0
ENDBLK
  5
54C
330
549
100
AcDbEntity
  8
0
100
AcDbBlockEnd
  0
BLOCK
  5
550
330
54E
100
AcDbEntity
  8
0
100
AcDbBlockBegin
  2
block 176
 70
     0
 10
0.0
 20
0.0
 30
0.0
  3
block 176
  1

  0
POLYLINE
  5
552
330
54E
100
AcDbEntity
  8
CSLAYER1
 62
     3
420
    65280
370
    25
100
AcDb2dPolyline
 66
     1
 10
0.0
 20
0.0
 30
0.0
  0
VERTEX
  5
553
330
552
100
AcDbEntity
  8
CSLAYER1
 62
     3
420
    65280
370
    25
100
AcDbVertex
100
AcDb2dVertex
 10
99.71655440731452
 20
252.5028906141469
 30
0.0
  0
VERTEX
  5
554
330
552
100
AcDbEntity
  8
CSLAYER1
 62
     3
420
    65280
370
    25
100
AcDbVertex
100
AcDb2dVertex
 10
98.01944440731474
 20
250.079166614147
 30
0.0
  0
SEQEND
  5
555
330
552
100
AcDbEntity
  8
CSLAYER1
 62
     3
420
    65280
370
    25
  0
ENDBLK
  5
551
330
54E
100
AcDbEntity
  8
0
100
AcDbBlockEnd
  0
BLOCK
  5
558
330
556
100
AcDbEntity
  8
0
100
AcDbBlockBegin
  2
block 177
 70
     0
 10
0.0
 20
0.0
 30
0.0
  3
block 177
  1

  0
POLYLINE
  5
55A
330
556
100
AcDbEntity
  8
CSLAYER1
 62
     3
420
    65280
370
    25
100
AcDb2dPolyline
 66
     1
 10
0.0
 20
0.0
 30
0.0
  0
VERTEX
  5
55B
330
55A
100
AcDbEntity
  8
CSLAYER1
 62
     3
420
    65280
370
    25
100
AcDbVertex
100
AcDb2dVertex
 10
98.01944440731474
 20
250.079166614147
 30
0.0
  0
VERTEX
  5
55C
330
55A
100
AcDbEntity
  8
CSLAYER1
 62
     3
420
    65280
370
    25
100
AcDbVertex
100
AcDb2dVertex
 10
99.71655440731452
 20
247.6554426141468
 30
0.0
  0
SEQEND
  5
55D
330
55A
100
AcDbEntity
  8
CSLAYER1
 62
     3
420
    65280
370
    25
  0
ENDBLK
  5
559
330
556
100
AcDbEntity
  8
0
100
AcDbBlockEnd
  0
BLOCK
  5
560
330
55E
100
AcDbEntity
  8
0
100
AcDbBlockBegin
  2
block 178
 70
     0
 10
0.0
 20
0.0
 30
0.0
  3
block 178
  1

  0
SPLINE
  5
562
330
55E
100
AcDbEntity
  8
CSLAYER1
 62
     3
420
    65280
370
    25
100
AcDbSpline
210
0.0
220
0.0
230
1.0
 70
     8
 71
     3
 72
     8
 73
     4
 74
     0
 42
0.0000000001
 43
0.0000000001
 12
1.0
 22
0.0
 32
0.0
 13
1.0
 23
0.0
 33
0.0
 40
0.0
 40
0.0
 40
0.0
 40
0.0
 40
1.0
 40
1.0
 40
1.0
 40
1.0
 10
99.71655404562438
 20
247.6554428386769
 30
0.0
 10
100.3767273017593
 20
243.623435384201
 30
0.0
 10
102.6530467423647
 20
240.0351873579786
 30
0.0
 10
106.01944437303
 20
237.7199595434174
 30
0.0
  0
ENDBLK
  5
561
330
55E
100
AcDbEntity
  8
0
100
AcDbBlockEnd
  0
BLOCK
  5
565
330
563
100
AcDbEntity
  8
0
100
AcDbBlockBegin
  2
block 179
 70
     0
 10
0.0
 20
0.0
 30
0.0
  3
block 179
  1

  0
POLYLINE
  5
567
330
563
100
AcDbEntity
  8
CSLAYER1
 62
     3
420
    65280
370
    25
100
AcDb2dPolyline
 66
     1
 10
0.0
 20
0.0
 30
0.0
  0
VERTEX
  5
568
330
567
100
AcDbEntity
  8
CSLAYER1
 62
     3
420
    65280
370
    25
100
AcDbVertex
100
AcDb2dVertex
 10
98.3695484073146
 20
249.579166614147
 30
0.0
  0
VERTEX
  5
569
330
567
100
AcDbEntity
  8
CSLAYER1
 62
     3
420
    65280
370
    25
100
AcDbVertex
100
AcDb2dVertex
 10
137.7401444073145
 20
249.579166614147
 30
0.0
  0
SEQEND
  5
56A
330
567
100
AcDbEntity
  8
CSLAYER1
 62
     3
420
    65280
370
    25
  0
ENDBLK
  5
566
330
563
100
AcDbEntity
  8
0
100
AcDbBlockEnd
  0
BLOCK
  5
56D
330
56B
100
AcDbEntity
  8
0
100
AcDbBlockBegin
  2
block 180
 70
     0
 10
0.0
 20
0.0
 30
0.0
  3
block 180
  1

  0
SPLINE
  5
56F
330
56B
100
AcDbEntity
  8
CSLAYER1
 62
     3
420
    65280
370
    25
100
AcDbSpline
210
0.0
220
0.0
230
1.0
 70
     8
 71
     3
 72
     8
 73
     4
 74
     0
 42
0.0000000001
 43
0.0000000001
 12
1.0
 22
0.0
 32
0.0
 13
1.0
 23
0.0
 33
0.0
 40
0.0
 40
0.0
 40
0.0
 40
0.0
 40
1.0
 40
1.0
 40
1.0
 40
1.0
 10
137.7401444073145
 20
249.579166614147
 30
0.0
 10
139.4753152576208
 20
249.579166614147
 30
0.0
 10
140.9485364455582
 20
250.8504812597987
 30
0.0
 10
141.2024638845282
 20
252.5669714973155
 30
0.0
  0
ENDBLK
  5
56E
330
56B
100
AcDbEntity
  8
0
100
AcDbBlockEnd
  0
BLOCK
  5
572
330
570
100
AcDbEntity
  8
0
100
AcDbBlockBegin
  2
block 181
 70
     0
 10
0.0
 20
0.0
 30
0.0
  3
block 181
  1

  0
POLYLINE
  5
574
330
570
100
AcDbEntity
  8
CSLAYER1
 62
     3
420
    65280
370
    25
100
AcDb2dPolyline
 66
     1
 10
0.0
 20
0.0
 30
0.0
  0
VERTEX
  5
575
330
574
100
AcDbEntity
  8
CSLAYER1
 62
     3
420
    65280
370
    25
100
AcDbVertex
100
AcDb2dVertex
 10
139.4630344073146
 20
250.9493486141469
 30
0.0
  0
VERTEX
  5
576
330
574
100
AcDbEntity
  8
CSLAYER1
 62
     3
420
    65280
370
    25
100
AcDbVertex
100
AcDb2dVertex
 10
144.0886834073146
 20
266.0791666141469
 30
0.0
  0
SEQEND
  5
577
330
574
100
AcDbEntity
  8
CSLAYER1
 62
     3
420
    65280
370
    25
  0
ENDBLK
  5
573
330
570
100
AcDbEntity
  8
0
100
AcDbBlockEnd
  0
BLOCK
  5
57A
330
578
100
AcDbEntity
  8
0
100
AcDbBlockBegin
  2
block 182
 70
     0
 10
0.0
 20
0.0
 30
0.0
  3
block 182
  1

  0
SPLINE
  5
57C
330
578
100
AcDbEntity
  8
CSLAYER1
 62
     3
420
    65280
370
    25
100
AcDbSpline
210
0.0
220
0.0
230
1.0
 70
     8
 71
     3
 72
     8
 73
     4
 74
     0
 42
0.0000000001
 43
0.0000000001
 12
1.0
 22
0.0
 32
0.0
 13
1.0
 23
0.0
 33
0.0
 40
0.0
 40
0.0
 40
0.0
 40
0.0
 40
1.0
 40
1.0
 40
1.0
 40
1.0
 10
152.2748817037092
 20
266.0791665936575
 30
0.0
 10
146.3751506836522
 20
263.9609556672499
 30
0.0
 10
142.1198003071039
 20
258.7679502530927
 30
0.0
 10
141.2024640894192
 20
252.5669714673283
 30
0.0
  0
ENDBLK
  5
57B
330
578
100
AcDbEntity
  8
0
100
AcDbBlockEnd
  0
BLOCK
  5
57F
330
57D
100
AcDbEntity
  8
0
100
AcDbBlockBegin
  2
block 183
 70
     0
 10
0.0
 20
0.0
 30
0.0
  3
block 183
  1

  0
POLYLINE
  5
581
330
57D
100
AcDbEntity
  8
CSLAYER1
 62
     3
420
    65280
370
    25
100
AcDb2dPolyline
 66
     1
 10
0.0
 20
0.0
 30
0.0
  0
VERTEX
  5
582
330
581
100
AcDbEntity
  8
CSLAYER1
 62
     3
420
    65280
370
    25
100
AcDbVertex
100
AcDb2dVertex
 10
139.4630344073146
 20
250.9493486141469
 30
0.0
  0
VERTEX
  5
583
330
581
100
AcDbEntity
  8
CSLAYER1
 62
     3
420
    65280
370
    25
100
AcDbVertex
100
AcDb2dVertex
 10
138.8963604073145
 20
250.3826746141468
 30
0.0
  0
SEQEND
  5
584
330
581
100
AcDbEntity
  8
CSLAYER1
 62
     3
420
    65280
370
    25
  0
ENDBLK
  5
580
330
57D
100
AcDbEntity
  8
0
100
AcDbBlockEnd
  0
BLOCK
  5
587
330
585
100
AcDbEntity
  8
0
100
AcDbBlockBegin
  2
block 184
 70
     0
 10
0.0
 20
0.0
 30
0.0
  3
block 184
  1

  0
SPLINE
  5
589
330
585
100
AcDbEntity
  8
CSLAYER1
 62
     3
420
    65280
370
    25
100
AcDbSpline
210
0.0
220
0.0
230
1.0
 70
     8
 71
     3
 72
     8
 73
     4
 74
     0
 42
0.0000000001
 43
0.0000000001
 12
1.0
 22
0.0
 32
0.0
 13
1.0
 23
0.0
 33
0.0
 40
0.0
 40
0.0
 40
0.0
 40
0.0
 40
1.0
 40
1.0
 40
1.0
 40
1.0
 10
139.5429200380368
 20
250.0791666183591
 30
0.0
 10
138.9984955944125
 20
250.406324991145
 30
0.0
 10
138.3753062573179
 20
250.579166614147
 30
0.0
 10
137.7401444073145
 20
250.579166614147
 30
0.0
  0
ENDBLK
  5
588
330
585
100
AcDbEntity
  8
0
100
AcDbBlockEnd
  0
BLOCK
  5
58C
330
58A
100
AcDbEntity
  8
0
100
AcDbBlockBegin
  2
block 185
 70
     0
 10
0.0
 20
0.0
 30
0.0
  3
block 185
  1

  0
POLYLINE
  5
58E
330
58A
100
AcDbEntity
  8
CSLAYER1
 62
     3
420
    65280
370
    25
100
AcDb2dPolyline
 66
     1
 10
0.0
 20
0.0
 30
0.0
  0
VERTEX
  5
58F
330
58E
100
AcDbEntity
  8
CSLAYER1
 62
     3
420
    65280
370
    25
100
AcDbVertex
100
AcDb2dVertex
 10
137.7401444073145
 20
250.5791666141467
 30
0.0
  0
VERTEX
  5
590
330
58E
100
AcDbEntity
  8
CSLAYER1
 62
     3
420
    65280
370
    25
100
AcDbVertex
100
AcDb2dVertex
 10
98.3695484073146
 20
250.5791666141467
 30
0.0
  0
SEQEND
  5
591
330
58E
100
AcDbEntity
  8
CSLAYER1
 62
     3
420
    65280
370
    25
  0
ENDBLK
  5
58D
330
58A
100
AcDbEntity
  8
0
100
AcDbBlockEnd
  0
BLOCK
  5
594
330
592
100
AcDbEntity
  8
0
100
AcDbBlockBegin
  2
block 186
 70
     0
 10
0.0
 20
0.0
 30
0.0
  3
block 186
  1

  0
POLYLINE
  5
596
330
592
100
AcDbEntity
  8
CSLAYER1
 62
     3
420
    65280
370
    25
100
AcDb2dPolyline
 66
     1
 10
0.0
 20
0.0
 30
0.0
  0
VERTEX
  5
597
330
596
100
AcDbEntity
  8
CSLAYER1
 62
     3
420
    65280
370
    25
100
AcDbVertex
100
AcDb2dVertex
 10
101.0194444073145
 20
250.079166614147
 30
0.0
  0
VERTEX
  5
598
330
596
100
AcDbEntity
  8
CSLAYER1
 62
     3
420
    65280
370
    25
100
AcDbVertex
100
AcDb2dVertex
 10
98.01944440731474
 20
250.079166614147
 30
0.0
  0
SEQEND
  5
599
330
596
100
AcDbEntity
  8
CSLAYER1
 62
     3
420
    65280
370
    25
  0
ENDBLK
  5
595
330
592
100
AcDbEntity
  8
0
100
AcDbBlockEnd
  0
BLOCK
  5
59C
330
59A
100
AcDbEntity
  8
0
100
AcDbBlockBegin
  2
block 187
 70
     0
 10
0.0
 20
0.0
 30
0.0
  3
block 187
  1

  0
POLYLINE
  5
59E
330
59A
100
AcDbEntity
  8
CSLAYER1
 62
     3
420
    65280
370
    25
100
AcDb2dPolyline
 66
     1
 10
0.0
 20
0.0
 30
0.0
  0
VERTEX
  5
59F
330
59E
100
AcDbEntity
  8
CSLAYER1
 62
     3
420
    65280
370
    25
100
AcDbVertex
100
AcDb2dVertex
 10
106.0194444073147
 20
200.7311106141472
 30
0.0
  0
VERTEX
  5
5A0
330
59E
100
AcDbEntity
  8
CSLAYER1
 62
     3
420
    65280
370
    25
100
AcDbVertex
100
AcDb2dVertex
 10
106.0194444073147
 20
181.3791666141468
 30
0.0
  0
SEQEND
  5
5A1
330
59E
100
AcDbEntity
  8
CSLAYER1
 62
     3
420
    65280
370
    25
  0
ENDBLK
  5
59D
330
59A
100
AcDbEntity
  8
0
100
AcDbBlockEnd
  0
BLOCK
  5
5A4
330
5A2
100
AcDbEntity
  8
0
100
AcDbBlockBegin
  2
block 188
 70
     0
 10
0.0
 20
0.0
 30
0.0
  3
block 188
  1

  0
SPLINE
  5
5A6
330
5A2
100
AcDbEntity
  8
CSLAYER1
 62
     3
420
    65280
370
    25
100
AcDbSpline
210
0.0
220
0.0
230
1.0
 70
     8
 71
     3
 72
     8
 73
     4
 74
     0
 42
0.0000000001
 43
0.0000000001
 12
1.0
 22
0.0
 32
0.0
 13
1.0
 23
0.0
 33
0.0
 40
0.0
 40
0.0
 40
0.0
 40
0.0
 40
1.0
 40
1.0
 40
1.0
 40
1.0
 10
106.0194444073147
 20
181.3791666141468
 30
0.0
 10
106.0194444073147
 20
177.5131733653314
 30
0.0
 10
109.1534511584989
 20
174.3791666141466
 30
0.0
 10
113.0194444073146
 20
174.3791666141466
 30
0.0
  0
ENDBLK
  5
5A5
330
5A2
100
AcDbEntity
  8
0
100
AcDbBlockEnd
  0
BLOCK
  5
5A9
330
5A7
100
AcDbEntity
  8
0
100
AcDbBlockBegin
  2
block 189
 70
     0
 10
0.0
 20
0.0
 30
0.0
  3
block 189
  1

  0
POLYLINE
  5
5AB
330
5A7
100
AcDbEntity
  8
CSLAYER1
 62
     3
420
    65280
370
    25
100
AcDb2dPolyline
 66
     1
 10
0.0
 20
0.0
 30
0.0
  0
VERTEX
  5
5AC
330
5AB
100
AcDbEntity
  8
CSLAYER1
 62
     3
420
    65280
370
    25
100
AcDbVertex
100
AcDb2dVertex
 10
113.0194444073146
 20
174.3791666141466
 30
0.0
  0
VERTEX
  5
5AD
330
5AB
100
AcDbEntity
  8
CSLAYER1
 62
     3
420
    65280
370
    25
100
AcDbVertex
100
AcDb2dVertex
 10
184.0194444073142
 20
174.3791666141466
 30
0.0
  0
SEQEND
  5
5AE
330
5AB
100
AcDbEntity
  8
CSLAYER1
 62
     3
420
    65280
370
    25
  0
ENDBLK
  5
5AA
330
5A7
100
AcDbEntity
  8
0
100
AcDbBlockEnd
  0
BLOCK
  5
5B1
330
5AF
100
AcDbEntity
  8
0
100
AcDbBlockBegin
  2
block 190
 70
     0
 10
0.0
 20
0.0
 30
0.0
  3
block 190
  1

  0
POLYLINE
  5
5B3
330
5AF
100
AcDbEntity
  8
CSLAYER1
 62
     3
420
    65280
370
    25
100
AcDb2dPolyline
 66
     1
 10
0.0
 20
0.0
 30
0.0
  0
VERTEX
  5
5B4
330
5B3
100
AcDbEntity
  8
CSLAYER1
 62
     3
420
    65280
370
    25
100
AcDbVertex
100
AcDb2dVertex
 10
184.0194444073142
 20
174.3791666141466
 30
0.0
  0
VERTEX
  5
5B5
330
5B3
100
AcDbEntity
  8
CSLAYER1
 62
     3
420
    65280
370
    25
100
AcDbVertex
100
AcDb2dVertex
 10
234.5215984073143
 20
173.5205766141472
 30
0.0
  0
SEQEND
  5
5B6
330
5B3
100
AcDbEntity
  8
CSLAYER1
 62
     3
420
    65280
370
    25
  0
ENDBLK
  5
5B2
330
5AF
100
AcDbEntity
  8
0
100
AcDbBlockEnd
  0
BLOCK
  5
5B9
330
5B7
100
AcDbEntity
  8
0
100
AcDbBlockBegin
  2
block 191
 70
     0
 10
0.0
 20
0.0
 30
0.0
  3
block 191
  1

  0
POLYLINE
  5
5BB
330
5B7
100
AcDbEntity
  8
CSLAYER1
 62
     3
420
    65280
370
    25
100
AcDb2dPolyline
 66
     1
 10
0.0
 20
0.0
 30
0.0
  0
VERTEX
  5
5BC
330
5BB
100
AcDbEntity
  8
CSLAYER1
 62
     3
420
    65280
370
    25
100
AcDbVertex
100
AcDb2dVertex
 10
242.4194444073144
 20
181.8791666141472
 30
0.0
  0
VERTEX
  5
5BD
330
5BB
100
AcDbEntity
  8
CSLAYER1
 62
     3
420
    65280
370
    25
100
AcDbVertex
100
AcDb2dVertex
 10
283.4194444073145
 20
181.8791666141472
 30
0.0
  0
SEQEND
  5
5BE
330
5BB
100
AcDbEntity
  8
CSLAYER1
 62
     3
420
    65280
370
    25
  0
ENDBLK
  5
5BA
330
5B7
100
AcDbEntity
  8
0
100
AcDbBlockEnd
  0
BLOCK
  5
5C1
330
5BF
100
AcDbEntity
  8
0
100
AcDbBlockBegin
  2
block 192
 70
     0
 10
0.0
 20
0.0
 30
0.0
  3
block 192
  1

  0
POLYLINE
  5
5C3
330
5BF
100
AcDbEntity
  8
CSLAYER1
 62
     3
420
    65280
370
    25
100
AcDb2dPolyline
 66
     1
 10
0.0
 20
0.0
 30
0.0
  0
VERTEX
  5
5C4
330
5C3
100
AcDbEntity
  8
CSLAYER1
 62
     3
420
    65280
370
    25
100
AcDbVertex
100
AcDb2dVertex
 10
283.4194444073145
 20
191.8791666141469
 30
0.0
  0
VERTEX
  5
5C5
330
5C3
100
AcDbEntity
  8
CSLAYER1
 62
     3
420
    65280
370
    25
100
AcDbVertex
100
AcDb2dVertex
 10
242.4194444073144
 20
191.8791666141469
 30
0.0
  0
SEQEND
  5
5C6
330
5C3
100
AcDbEntity
  8
CSLAYER1
 62
     3
420
    65280
370
    25
  0
ENDBLK
  5
5C2
330
5BF
100
AcDbEntity
  8
0
100
AcDbBlockEnd
  0
BLOCK
  5
5C9
330
5C7
100
AcDbEntity
  8
0
100
AcDbBlockBegin
  2
block 193
 70
     0
 10
0.0
 20
0.0
 30
0.0
  3
block 193
  1

  0
SPLINE
  5
5CB
330
5C7
100
AcDbEntity
  8
CSLAYER1
 62
     3
420
    65280
370
    25
100
AcDbSpline
210
0.0
220
0.0
230
1.0
 70
     8
 71
     3
 72
    11
 73
     7
 74
     0
 42
0.0000000001
 43
0.0000000001
 12
1.0
 22
0.0
 32
0.0
 13
1.0
 23
0.0
 33
0.0
 40
0.0
 40
0.0
 40
0.0
 40
0.0
 40
1.0
 40
1.0
 40
1.0
 40
2.0
 40
2.0
 40
2.0
 40
2.0
 10
234.5194304073145
 20
158.3931056141471
 30
0.0
 10
238.6615660310457
 20
158.3931056141471
 30
0.0
 10
242.0194304073144
 20
161.7509699904158
 30
0.0
 10
242.0194304073144
 20
165.893105614147
 30
0.0
 10
242.0194304073144
 20
170.0352412378776
 30
0.0
 10
238.6615660310457
 20
173.393105614147
 30
0.0
 10
234.5194304073145
 20
173.393105614147
 30
0.0
  0
ENDBLK
  5
5CA
330
5C7
100
AcDbEntity
  8
0
100
AcDbBlockEnd
  0
BLOCK
  5
5CE
330
5CC
100
AcDbEntity
  8
0
100
AcDbBlockBegin
  2
block 194
 70
     0
 10
0.0
 20
0.0
 30
0.0
  3
block 194
  1

  0
POLYLINE
  5
5D0
330
5CC
100
AcDbEntity
  8
CSLAYER1
 62
     3
420
    65280
370
    25
100
AcDb2dPolyline
 66
     1
 10
0.0
 20
0.0
 30
0.0
  0
VERTEX
  5
5D1
330
5D0
100
AcDbEntity
  8
CSLAYER1
 62
     3
420
    65280
370
    25
100
AcDbVertex
100
AcDb2dVertex
 10
234.5217224073148
 20
158.2620336141466
 30
0.0
  0
VERTEX
  5
5D2
330
5D0
100
AcDbEntity
  8
CSLAYER1
 62
     3
420
    65280
370
    25
100
AcDbVertex
100
AcDb2dVertex
 10
184.0194444073142
 20
157.3791666141466
 30
0.0
  0
SEQEND
  5
5D3
330
5D0
100
AcDbEntity
  8
CSLAYER1
 62
     3
420
    65280
370
    25
  0
ENDBLK
  5
5CF
330
5CC
100
AcDbEntity
  8
0
100
AcDbBlockEnd
  0
BLOCK
  5
5D6
330
5D4
100
AcDbEntity
  8
0
100
AcDbBlockBegin
  2
block 195
 70
     0
 10
0.0
 20
0.0
 30
0.0
  3
block 195
  1

  0
POLYLINE
  5
5D8
330
5D4
100
AcDbEntity
  8
CSLAYER1
 62
     3
420
    65280
370
    25
100
AcDb2dPolyline
 66
     1
 10
0.0
 20
0.0
 30
0.0
  0
VERTEX
  5
5D9
330
5D8
100
AcDbEntity
  8
CSLAYER1
 62
     3
420
    65280
370
    25
100
AcDbVertex
100
AcDb2dVertex
 10
184.0194444073142
 20
157.3791666141466
 30
0.0
  0
VERTEX
  5
5DA
330
5D8
100
AcDbEntity
  8
CSLAYER1
 62
     3
420
    65280
370
    25
100
AcDbVertex
100
AcDb2dVertex
 10
98.01944440731474
 20
157.3791666141466
 30
0.0
  0
SEQEND
  5
5DB
330
5D8
100
AcDbEntity
  8
CSLAYER1
 62
     3
420
    65280
370
    25
  0
ENDBLK
  5
5D7
330
5D4
100
AcDbEntity
  8
0
100
AcDbBlockEnd
  0
BLOCK
  5
5DE
330
5DC
100
AcDbEntity
  8
0
100
AcDbBlockBegin
  2
block 196
 70
     0
 10
0.0
 20
0.0
 30
0.0
  3
block 196
  1

  0
SPLINE
  5
5E0
330
5DC
100
AcDbEntity
  8
CSLAYER1
 62
     3
420
    65280
370
    25
100
AcDbSpline
210
0.0
220
0.0
230
1.0
 70
     8
 71
     3
 72
     8
 73
     4
 74
     0
 42
0.0000000001
 43
0.0000000001
 12
1.0
 22
0.0
 32
0.0
 13
1.0
 23
0.0
 33
0.0
 40
0.0
 40
0.0
 40
0.0
 40
0.0
 40
1.0
 40
1.0
 40
1.0
 40
1.0
 10
106.0194444073147
 20
200.7311106141472
 30
0.0
 10
106.0194444073147
 20
207.5025656862448
 30
0.0
 10
103.7285936444723
 20
214.0748601751343
 30
0.0
 10
99.51944451825139
 20
219.3791666733176
 30
0.0
  0
ENDBLK
  5
5DF
330
5DC
100
AcDbEntity
  8
0
100
AcDbBlockEnd
  0
BLOCK
  5
5E3
330
5E1
100
AcDbEntity
  8
0
100
AcDbBlockBegin
  2
block 197
 70
     0
 10
0.0
 20
0.0
 30
0.0
  3
block 197
  1

  0
SPLINE
  5
5E5
330
5E1
100
AcDbEntity
  8
CSLAYER1
 62
     3
420
    65280
370
    25
100
AcDbSpline
210
0.0
220
0.0
230
1.0
 70
     8
 71
     3
 72
     8
 73
     4
 74
     0
 42
0.0000000001
 43
0.0000000001
 12
1.0
 22
0.0
 32
0.0
 13
1.0
 23
0.0
 33
0.0
 40
0.0
 40
0.0
 40
0.0
 40
0.0
 40
1.0
 40
1.0
 40
1.0
 40
1.0
 10
48.63173041853801
 20
219.3791665587031
 30
0.0
 10
39.31990805368711
 20
217.4783987834819
 30
0.0
 10
32.63173040731446
 20
209.2870875169198
 30
0.0
 10
32.63173040731446
 20
199.7832486141465
 30
0.0
  0
ENDBLK
  5
5E4
330
5E1
100
AcDbEntity
  8
0
100
AcDbBlockEnd
  0
BLOCK
  5
5E8
330
5E6
100
AcDbEntity
  8
0
100
AcDbBlockBegin
  2
block 198
 70
     0
 10
0.0
 20
0.0
 30
0.0
  3
block 198
  1

  0
POLYLINE
  5
5EA
330
5E6
100
AcDbEntity
  8
CSLAYER1
 62
     3
420
    65280
370
    25
100
AcDb2dPolyline
 66
     1
 10
0.0
 20
0.0
 30
0.0
  0
VERTEX
  5
5EB
330
5EA
100
AcDbEntity
  8
CSLAYER1
 62
     3
420
    65280
370
    25
100
AcDbVertex
100
AcDb2dVertex
 10
144.0886834073146
 20
164.8791666141466
 30
0.0
  0
VERTEX
  5
5EC
330
5EA
100
AcDbEntity
  8
CSLAYER1
 62
     3
420
    65280
370
    25
100
AcDbVertex
100
AcDb2dVertex
 10
144.0886834073146
 20
157.3791666141466
 30
0.0
  0
SEQEND
  5
5ED
330
5EA
100
AcDbEntity
  8
CSLAYER1
 62
     3
420
    65280
370
    25
  0
ENDBLK
  5
5E9
330
5E6
100
AcDbEntity
  8
0
100
AcDbBlockEnd
  0
BLOCK
  5
5F0
330
5EE
100
AcDbEntity
  8
0
100
AcDbBlockBegin
  2
block 199
 70
     0
 10
0.0
 20
0.0
 30
0.0
  3
block 199
  1

  0
POLYLINE
  5
5F2
330
5EE
100
AcDbEntity
  8
CSLAYER1
 62
     3
420
    65280
370
    25
100
AcDb2dPolyline
 66
     1
 10
0.0
 20
0.0
 30
0.0
  0
VERTEX
  5
5F3
330
5F2
100
AcDbEntity
  8
CSLAYER1
 62
     3
420
    65280
370
    25
100
AcDbVertex
100
AcDb2dVertex
 10
152.2748814073148
 20
157.3791666141466
 30
0.0
  0
VERTEX
  5
5F4
330
5F2
100
AcDbEntity
  8
CSLAYER1
 62
     3
420
    65280
370
    25
100
AcDbVertex
100
AcDb2dVertex
 10
152.2748814073148
 20
165.3791666141469
 30
0.0
  0
SEQEND
  5
5F5
330
5F2
100
AcDbEntity
  8
CSLAYER1
 62
     3
420
    65280
370
    25
  0
ENDBLK
  5
5F1
330
5EE
100
AcDbEntity
  8
0
100
AcDbBlockEnd
  0
BLOCK
  5
5F8
330
5F6
100
AcDbEntity
  8
0
100
AcDbBlockBegin
  2
block 200
 70
     0
 10
0.0
 20
0.0
 30
0.0
  3
block 200
  1

  0
POLYLINE
  5
5FA
330
5F6
100
AcDbEntity
  8
CSLAYER1
 62
     3
420
    65280
370
    25
100
AcDb2dPolyline
 66
     1
 10
0.0
 20
0.0
 30
0.0
  0
VERTEX
  5
5FB
330
5FA
100
AcDbEntity
  8
CSLAYER1
 62
     3
420
    65280
370
    25
100
AcDbVertex
100
AcDb2dVertex
 10
152.2748814073148
 20
165.3791666141469
 30
0.0
  0
VERTEX
  5
5FC
330
5FA
100
AcDbEntity
  8
CSLAYER1
 62
     3
420
    65280
370
    25
100
AcDbVertex
100
AcDb2dVertex
 10
152.7748814073145
 20
165.8791666141466
 30
0.0
  0
SEQEND
  5
5FD
330
5FA
100
AcDbEntity
  8
CSLAYER1
 62
     3
420
    65280
370
    25
  0
ENDBLK
  5
5F9
330
5F6
100
AcDbEntity
  8
0
100
AcDbBlockEnd
  0
BLOCK
  5
600
330
5FE
100
AcDbEntity
  8
0
100
AcDbBlockBegin
  2
block 201
 70
     0
 10
0.0
 20
0.0
 30
0.0
  3
block 201
  1

  0
SPLINE
  5
602
330
5FE
100
AcDbEntity
  8
CSLAYER1
 62
     3
420
    65280
370
    25
100
AcDbSpline
210
0.0
220
0.0
230
1.0
 70
     8
 71
     3
 72
     8
 73
     4
 74
     0
 42
0.0000000001
 43
0.0000000001
 12
1.0
 22
0.0
 32
0.0
 13
1.0
 23
0.0
 33
0.0
 40
0.0
 40
0.0
 40
0.0
 40
0.0
 40
1.0
 40
1.0
 40
1.0
 40
1.0
 10
145.0886834073146
 20
165.8791666141466
 30
0.0
 10
144.5363986574837
 20
165.8791666141466
 30
0.0
 10
144.0886834073146
 20
165.4314513639775
 30
0.0
 10
144.0886834073146
 20
164.8791666141466
 30
0.0
  0
ENDBLK
  5
601
330
5FE
100
AcDbEntity
  8
0
100
AcDbBlockEnd
  0
BLOCK
  5
605
330
603
100
AcDbEntity
  8
0
100
AcDbBlockBegin
  2
block 202
 70
     0
 10
0.0
 20
0.0
 30
0.0
  3
block 202
  1

  0
POLYLINE
  5
607
330
603
100
AcDbEntity
  8
CSLAYER1
 62
     3
420
    65280
370
    25
100
AcDb2dPolyline
 66
     1
 10
0.0
 20
0.0
 30
0.0
  0
VERTEX
  5
608
330
607
100
AcDbEntity
  8
CSLAYER1
 62
     3
420
    65280
370
    25
100
AcDbVertex
100
AcDb2dVertex
 10
145.0886834073146
 20
165.8791666141466
 30
0.0
  0
VERTEX
  5
609
330
607
100
AcDbEntity
  8
CSLAYER1
 62
     3
420
    65280
370
    25
100
AcDbVertex
100
AcDb2dVertex
 10
170.9502054073146
 20
165.8791666141466
 30
0.0
  0
SEQEND
  5
60A
330
607
100
AcDbEntity
  8
CSLAYER1
 62
     3
420
    65280
370
    25
  0
ENDBLK
  5
606
330
603
100
AcDbEntity
  8
0
100
AcDbBlockEnd
  0
BLOCK
  5
60D
330
60B
100
AcDbEntity
  8
0
100
AcDbBlockBegin
  2
block 203
 70
     0
 10
0.0
 20
0.0
 30
0.0
  3
block 203
  1

  0
SPLINE
  5
60F
330
60B
100
AcDbEntity
  8
CSLAYER1
 62
     3
420
    65280
370
    25
100
AcDbSpline
210
0.0
220
0.0
230
1.0
 70
     8
 71
     3
 72
     8
 73
     4
 74
     0
 42
0.0000000001
 43
0.0000000001
 12
1.0
 22
0.0
 32
0.0
 13
1.0
 23
0.0
 33
0.0
 40
0.0
 40
0.0
 40
0.0
 40
0.0
 40
1.0
 40
1.0
 40
1.0
 40
1.0
 10
170.9502054073146
 20
165.8791666141466
 30
0.0
 10
171.5024901571456
 20
165.8791666141466
 30
0.0
 10
171.9502054073147
 20
166.3268818643163
 30
0.0
 10
171.9502054073147
 20
166.8791666141466
 30
0.0
  0
ENDBLK
  5
60E
330
60B
100
AcDbEntity
  8
0
100
AcDbBlockEnd
  0
BLOCK
  5
612
330
610
100
AcDbEntity
  8
0
100
AcDbBlockBegin
  2
block 204
 70
     0
 10
0.0
 20
0.0
 30
0.0
  3
block 204
  1

  0
POLYLINE
  5
614
330
610
100
AcDbEntity
  8
CSLAYER1
 62
     3
420
    65280
370
    25
100
AcDb2dPolyline
 66
     1
 10
0.0
 20
0.0
 30
0.0
  0
VERTEX
  5
615
330
614
100
AcDbEntity
  8
CSLAYER1
 62
     3
420
    65280
370
    25
100
AcDbVertex
100
AcDb2dVertex
 10
171.9502054073147
 20
166.8791666141466
 30
0.0
  0
VERTEX
  5
616
330
614
100
AcDbEntity
  8
CSLAYER1
 62
     3
420
    65280
370
    25
100
AcDbVertex
100
AcDb2dVertex
 10
171.9502054073147
 20
174.3791666141466
 30
0.0
  0
SEQEND
  5
617
330
614
100
AcDbEntity
  8
CSLAYER1
 62
     3
420
    65280
370
    25
  0
ENDBLK
  5
613
330
610
100
AcDbEntity
  8
0
100
AcDbBlockEnd
  0
BLOCK
  5
61A
330
618
100
AcDbEntity
  8
0
100
AcDbBlockBegin
  2
block 205
 70
     0
 10
0.0
 20
0.0
 30
0.0
  3
block 205
  1

  0
POLYLINE
  5
61C
330
618
100
AcDbEntity
  8
CSLAYER1
 62
     3
420
    65280
370
    25
100
AcDb2dPolyline
 66
     1
 10
0.0
 20
0.0
 30
0.0
  0
VERTEX
  5
61D
330
61C
100
AcDbEntity
  8
CSLAYER1
 62
     3
420
    65280
370
    25
100
AcDbVertex
100
AcDb2dVertex
 10
163.7640074073144
 20
174.3791666141466
 30
0.0
  0
VERTEX
  5
61E
330
61C
100
AcDbEntity
  8
CSLAYER1
 62
     3
420
    65280
370
    25
100
AcDbVertex
100
AcDb2dVertex
 10
163.7640074073144
 20
166.379166614147
 30
0.0
  0
SEQEND
  5
61F
330
61C
100
AcDbEntity
  8
CSLAYER1
 62
     3
420
    65280
370
    25
  0
ENDBLK
  5
61B
330
618
100
AcDbEntity
  8
0
100
AcDbBlockEnd
  0
BLOCK
  5
622
330
620
100
AcDbEntity
  8
0
100
AcDbBlockBegin
  2
block 206
 70
     0
 10
0.0
 20
0.0
 30
0.0
  3
block 206
  1

  0
POLYLINE
  5
624
330
620
100
AcDbEntity
  8
CSLAYER1
 62
     3
420
    65280
370
    25
100
AcDb2dPolyline
 66
     1
 10
0.0
 20
0.0
 30
0.0
  0
VERTEX
  5
625
330
624
100
AcDbEntity
  8
CSLAYER1
 62
     3
420
    65280
370
    25
100
AcDbVertex
100
AcDb2dVertex
 10
163.7640074073144
 20
166.379166614147
 30
0.0
  0
VERTEX
  5
626
330
624
100
AcDbEntity
  8
CSLAYER1
 62
     3
420
    65280
370
    25
100
AcDbVertex
100
AcDb2dVertex
 10
163.2640074073147
 20
165.8791666141466
 30
0.0
  0
SEQEND
  5
627
330
624
100
AcDbEntity
  8
CSLAYER1
 62
     3
420
    65280
370
    25
  0
ENDBLK
  5
623
330
620
100
AcDbEntity
  8
0
100
AcDbBlockEnd
  0
BLOCK
  5
62A
330
628
100
AcDbEntity
  8
0
100
AcDbBlockBegin
  2
block 207
 70
     0
 10
0.0
 20
0.0
 30
0.0
  3
block 207
  1

  0
SPLINE
  5
62C
330
628
100
AcDbEntity
  8
CSLAYER1
 62
     3
420
    65280
370
    25
100
AcDbSpline
210
0.0
220
0.0
230
1.0
 70
     8
 71
     3
 72
    11
 73
     7
 74
     0
 42
0.0000000001
 43
0.0000000001
 12
1.0
 22
0.0
 32
0.0
 13
1.0
 23
0.0
 33
0.0
 40
0.0
 40
0.0
 40
0.0
 40
0.0
 40
1.0
 40
1.0
 40
1.0
 40
2.0
 40
2.0
 40
2.0
 40
2.0
 10
175.0062942554403
 20
249.410627288463
 30
0.0
 10
174.9889190047966
 20
248.9691412689805
 30
0.0
 10
175.3327287135161
 20
248.597160712917
 30
0.0
 10
175.7742147329989
 20
248.5797854622727
 30
0.0
 10
175.7846965529133
 20
248.5793729367563
 30
0.0
 10
175.7951854728046
 20
248.579166614147
 30
0.0
 10
175.8056754073146
 20
248.579166614147
 30
0.0
  0
ENDBLK
  5
62B
330
628
100
AcDbEntity
  8
0
100
AcDbBlockEnd
  0
BLOCK
  5
62F
330
62D
100
AcDbEntity
  8
0
100
AcDbBlockBegin
  2
block 208
 70
     0
 10
0.0
 20
0.0
 30
0.0
  3
block 208
  1

  0
SPLINE
  5
631
330
62D
100
AcDbEntity
  8
CSLAYER1
 62
     3
420
    65280
370
    25
100
AcDbSpline
210
0.0
220
0.0
230
1.0
 70
    11
 71
     3
 72
    20
 73
    16
 74
     0
 42
0.0000000001
 43
0.0000000001
 12
1.0
 22
0.0
 32
0.0
 13
1.0
 23
0.0
 33
0.0
 40
0.0
 40
0.0
 40
0.0
 40
0.0
 40
1.0
 40
1.0
 40
1.0
 40
2.0
 40
2.0
 40
2.0
 40
3.0
 40
3.0
 40
3.0
 40
4.0
 40
4.0
 40
4.0
 40
5.0
 40
5.0
 40
5.0
 40
5.0
 10
148.4694444073144
 20
250.079166614147
 30
0.0
 10
148.4694444073144
 20
255.3534859750309
 30
0.0
 10
152.7451250464308
 20
259.6291666141469
 30
0.0
 10
158.0194444073146
 20
259.6291666141469
 30
0.0
 10
163.2937637681985
 20
259.6291666141469
 30
0.0
 10
167.5694444073148
 20
255.3534859750309
 30
0.0
 10
167.5694444073148
 20
250.079166614147
 30
0.0
 10
167.5694444073148
 20
244.8048472532628
 30
0.0
 10
163.2937637681985
 20
240.5291666141468
 30
0.0
 10
158.0194444073146
 20
240.5291666141468
 30
0.0
 10
152.7451250464308
 20
240.5291666141468
 30
0.0
 10
148.4694444073144
 20
244.8048472532628
 30
0.0
 10
148.4694444073144
 20
250.079166614147
 30
0.0
 10
148.4694444073144
 20
250.079166614147
 30
0.0
 10
148.4694444073144
 20
250.079166614147
 30
0.0
 10
148.4694444073144
 20
250.079166614147
 30
0.0
  0
ENDBLK
  5
630
330
62D
100
AcDbEntity
  8
0
100
AcDbBlockEnd
  0
BLOCK
  5
634
330
632
100
AcDbEntity
  8
0
100
AcDbBlockBegin
  2
block 209
 70
     0
 10
0.0
 20
0.0
 30
0.0
  3
block 209
  1

  0
SPLINE
  5
636
330
632
100
AcDbEntity
  8
CSLAYER1
 62
     3
420
    65280
370
    25
100
AcDbSpline
210
0.0
220
0.0
230
1.0
 70
    11
 71
     3
 72
    20
 73
    16
 74
     0
 42
0.0000000001
 43
0.0000000001
 12
1.0
 22
0.0
 32
0.0
 13
1.0
 23
0.0
 33
0.0
 40
0.0
 40
0.0
 40
0.0
 40
0.0
 40
1.0
 40
1.0
 40
1.0
 40
2.0
 40
2.0
 40
2.0
 40
3.0
 40
3.0
 40
3.0
 40
4.0
 40
4.0
 40
4.0
 40
5.0
 40
5.0
 40
5.0
 40
5.0
 10
155.2694444073147
 20
250.079166614147
 30
0.0
 10
155.2694444073147
 20
251.5979496761817
 30
0.0
 10
156.50066134528
 20
252.8291666141469
 30
0.0
 10
158.0194444073146
 20
252.8291666141469
 30
0.0
 10
159.5382274693492
 20
252.8291666141469
 30
0.0
 10
160.7694444073146
 20
251.5979496761817
 30
0.0
 10
160.7694444073146
 20
250.079166614147
 30
0.0
 10
160.7694444073146
 20
248.5603835521121
 30
0.0
 10
159.5382274693492
 20
247.3291666141467
 30
0.0
 10
158.0194444073146
 20
247.3291666141467
 30
0.0
 10
156.50066134528
 20
247.3291666141467
 30
0.0
 10
155.2694444073147
 20
248.5603835521121
 30
0.0
 10
155.2694444073147
 20
250.079166614147
 30
0.0
 10
155.2694444073147
 20
250.079166614147
 30
0.0
 10
155.2694444073147
 20
250.079166614147
 30
0.0
 10
155.2694444073147
 20
250.079166614147
 30
0.0
  0
ENDBLK
  5
635
330
632
100
AcDbEntity
  8
0
100
AcDbBlockEnd
  0
BLOCK
  5
639
330
637
100
AcDbEntity
  8
0
100
AcDbBlockBegin
  2
block 210
 70
     0
 10
0.0
 20
0.0
 30
0.0
  3
block 210
  1

  0
POLYLINE
  5
63B
330
637
100
AcDbEntity
  8
CSLAYER1
 62
     3
420
    65280
370
    25
100
AcDb2dPolyline
 66
     1
 10
0.0
 20
0.0
 30
0.0
  0
VERTEX
  5
63C
330
63B
100
AcDbEntity
  8
CSLAYER1
 62
     3
420
    65280
370
    25
100
AcDbVertex
100
AcDb2dVertex
 10
228.0194444073145
 20
251.5791666141467
 30
0.0
  0
VERTEX
  5
63D
330
63B
100
AcDbEntity
  8
CSLAYER1
 62
     3
420
    65280
370
    25
100
AcDbVertex
100
AcDb2dVertex
 10
228.0194444073145
 20
248.579166614147
 30
0.0
  0
SEQEND
  5
63E
330
63B
100
AcDbEntity
  8
CSLAYER1
 62
     3
420
    65280
370
    25
  0
ENDBLK
  5
63A
330
637
100
AcDbEntity
  8
0
100
AcDbBlockEnd
  0
BLOCK
  5
641
330
63F
100
AcDbEntity
  8
0
100
AcDbBlockBegin
  2
block 211
 70
     0
 10
0.0
 20
0.0
 30
0.0
  3
block 211
  1

  0
POLYLINE
  5
643
330
63F
100
AcDbEntity
  8
CSLAYER1
 62
     3
420
    65280
370
    25
100
AcDb2dPolyline
 66
     1
 10
0.0
 20
0.0
 30
0.0
  0
VERTEX
  5
644
330
643
100
AcDbEntity
  8
CSLAYER1
 62
     3
420
    65280
370
    25
100
AcDbVertex
100
AcDb2dVertex
 10
236.0194444073148
 20
248.579166614147
 30
0.0
  0
VERTEX
  5
645
330
643
100
AcDbEntity
  8
CSLAYER1
 62
     3
420
    65280
370
    25
100
AcDbVertex
100
AcDb2dVertex
 10
236.0194444073148
 20
251.5791666141467
 30
0.0
  0
SEQEND
  5
646
330
643
100
AcDbEntity
  8
CSLAYER1
 62
     3
420
    65280
370
    25
  0
ENDBLK
  5
642
330
63F
100
AcDbEntity
  8
0
100
AcDbBlockEnd
  0
BLOCK
  5
649
330
647
100
AcDbEntity
  8
0
100
AcDbBlockBegin
  2
block 212
 70
     0
 10
0.0
 20
0.0
 30
0.0
  3
block 212
  1

  0
MTEXT
  5
64B
330
647
100
AcDbEntity
  8
CSLAYER1
 62
     4
420
    65535
100
AcDbMText
 10
146.0482874877709
 20
261.1014690415313
 30
0.0
 40
3.200000066758555
 41
0.0
 46
0.0
 71
     7
 72
     1
  1
\fKozuka Gothic Pr6N R|b0|i0|c0|p34;\W1.15911;34
 11
0.7561237387888525
 21
-0.6544286757469963
 31
0.0
 73
     1
 44
1.0
  0
ENDBLK
  5
64A
330
647
100
AcDbEntity
  8
0
100
AcDbBlockEnd
  0
BLOCK
  5
64E
330
64C
100
AcDbEntity
  8
0
100
AcDbBlockBegin
  2
block 213
 70
     0
 10
0.0
 20
0.0
 30
0.0
  3
block 213
  1

  0
MTEXT
  5
650
330
64C
100
AcDbEntity
  8
CSLAYER1
 62
     4
420
    65535
100
AcDbMText
 10
133.1750960603211
 20
161.709072775448
 30
0.0
 40
1.600000013184171
 41
0.0
 46
0.0
 71
     7
 72
     1
  1
\fKozuka Gothic Pr6N R|b0|i0|c0|p34;\W1.08667;  0
 11
6.123233995736766E-17
 21
1.0
 31
0.0
 73
     1
 44
1.0
  0
ENDBLK
  5
64F
330
64C
100
AcDbEntity
  8
0
100
AcDbBlockEnd
  0
BLOCK
  5
653
330
651
100
AcDbEntity
  8
0
100
AcDbBlockBegin
  2
block 214
 70
     0
 10
0.0
 20
0.0
 30
0.0
  3
block 214
  1

  0
MTEXT
  5
655
330
651
100
AcDbEntity
  8
CSLAYER1
 62
     4
420
    65535
100
AcDbMText
 10
134.7750952969817
 20
161.709072775448
 30
0.0
 40
1.600000013184171
 41
0.0
 46
0.0
 71
     7
 72
     1
  1
\fKozuka Gothic Pr6N R|b0|i0|c0|p34;\W1.03492;-0.15
 11
6.123233995736766E-17
 21
1.0
 31
0.0
 73
     1
 44
1.0
  0
ENDBLK
  5
654
330
651
100
AcDbEntity
  8
0
100
AcDbBlockEnd
  0
BLOCK
  5
658
330
656
100
AcDbEntity
  8
0
100
AcDbBlockBegin
  2
block 215
 70
     0
 10
0.0
 20
0.0
 30
0.0
  3
block 215
  1

  0
POLYLINE
  5
65A
330
656
100
AcDbEntity
  8
CSLAYER1
  6
AI-Linetype-1
 62
     4
420
    65535
370
    25
100
AcDb2dPolyline
 66
     1
 10
0.0
 20
0.0
 30
0.0
  0
VERTEX
  5
65B
330
65A
100
AcDbEntity
  8
CSLAYER1
  6
AI-Linetype-1
 62
     4
420
    65535
370
    25
100
AcDbVertex
100
AcDb2dVertex
 10
48.6317304073147
 20
160.3791666141467
 30
0.0
  0
VERTEX
  5
65C
330
65A
100
AcDbEntity
  8
CSLAYER1
  6
AI-Linetype-1
 62
     4
420
    65535
370
    25
100
AcDbVertex
100
AcDb2dVertex
 10
48.6317304073147
 20
183.3791666141469
 30
0.0
  0
SEQEND
  5
65E
330
65A
100
AcDbEntity
  8
CSLAYER1
  6
AI-Linetype-1
 62
     4
420
    65535
370
    25
  0
ENDBLK
  5
659
330
656
100
AcDbEntity
  8
0
100
AcDbBlockEnd
  0
BLOCK
  5
661
330
65F
100
AcDbEntity
  8
0
100
AcDbBlockBegin
  2
block 216
 70
     0
 10
0.0
 20
0.0
 30
0.0
  3
block 216
  1

  0
SPLINE
  5
663
330
65F
100
AcDbEntity
  8
CSLAYER1
  6
AI-Linetype-2
 62
     4
420
    65535
370
    25
100
AcDbSpline
210
0.0
220
0.0
230
1.0
 70
     8
 71
     3
 72
     8
 73
     4
 74
     0
 42
0.0000000001
 43
0.0000000001
 12
1.0
 22
0.0
 32
0.0
 13
1.0
 23
0.0
 33
0.0
 40
0.0
 40
0.0
 40
0.0
 40
0.0
 40
1.0
 40
1.0
 40
1.0
 40
1.0
 10
66.63173040731469
 20
199.7832486141465
 30
0.0
 10
66.63173040731469
 20
210.2374714071968
 30
0.0
 10
59.27473499630481
 20
219.2479138004154
 30
0.0
 10
49.03173039496907
 20
221.3387583531588
 30
0.0
  0
ENDBLK
  5
662
330
65F
100
AcDbEntity
  8
0
100
AcDbBlockEnd
  0
BLOCK
  5
667
330
665
100
AcDbEntity
  8
0
100
AcDbBlockBegin
  2
block 217
 70
     0
 10
0.0
 20
0.0
 30
0.0
  3
block 217
  1

  0
SPLINE
  5
669
330
665
100
AcDbEntity
  8
CSLAYER1
  6
AI-Linetype-3
 62
     4
420
    65535
370
    25
100
AcDbSpline
210
0.0
220
0.0
230
1.0
 70
     8
 71
     3
 72
     8
 73
     4
 74
     0
 42
0.0000000001
 43
0.0000000001
 12
1.0
 22
0.0
 32
0.0
 13
1.0
 23
0.0
 33
0.0
 40
0.0
 40
0.0
 40
0.0
 40
0.0
 40
1.0
 40
1.0
 40
1.0
 40
1.0
 10
48.23173041966033
 20
221.3387583531588
 30
0.0
 10
37.9887258183246
 20
219.2479138004154
 30
0.0
 10
30.63173040731471
 20
210.2374714071968
 30
0.0
 10
30.63173040731471
 20
199.7832486141465
 30
0.0
  0
ENDBLK
  5
668
330
665
100
AcDbEntity
  8
0
100
AcDbBlockEnd
  0
BLOCK
  5
66D
330
66B
100
AcDbEntity
  8
0
100
AcDbBlockBegin
  2
block 218
 70
     0
 10
0.0
 20
0.0
 30
0.0
  3
block 218
  1

  0
POLYLINE
  5
66F
330
66B
100
AcDbEntity
  8
CSLAYER1
  6
AI-Linetype-4
 62
     4
420
    65535
370
    25
100
AcDb2dPolyline
 66
     1
 10
0.0
 20
0.0
 30
0.0
  0
VERTEX
  5
670
330
66F
100
AcDbEntity
  8
CSLAYER1
  6
AI-Linetype-4
 62
     4
420
    65535
370
    25
100
AcDbVertex
100
AcDb2dVertex
 10
101.0194444073145
 20
250.079166614147
 30
0.0
  0
VERTEX
  5
671
330
66F
100
AcDbEntity
  8
CSLAYER1
  6
AI-Linetype-4
 62
     4
420
    65535
370
    25
100
AcDbVertex
100
AcDb2dVertex
 10
250.2503534073147
 20
250.079166614147
 30
0.0
  0
SEQEND
  5
673
330
66F
100
AcDbEntity
  8
CSLAYER1
  6
AI-Linetype-4
 62
     4
420
    65535
370
    25
  0
ENDBLK
  5
66E
330
66B
100
AcDbEntity
  8
0
100
AcDbBlockEnd
  0
BLOCK
  5
676
330
674
100
AcDbEntity
  8
0
100
AcDbBlockBegin
  2
block 219
 70
     0
 10
0.0
 20
0.0
 30
0.0
  3
block 219
  1

  0
POLYLINE
  5
678
330
674
100
AcDbEntity
  8
CSLAYER1
  6
AI-Linetype-5
 62
     4
420
    65535
370
    25
100
AcDb2dPolyline
 66
     1
 10
0.0
 20
0.0
 30
0.0
  0
VERTEX
  5
679
330
678
100
AcDbEntity
  8
CSLAYER1
  6
AI-Linetype-5
 62
     4
420
    65535
370
    25
100
AcDbVertex
100
AcDb2dVertex
 10
244.0157434073146
 20
251.700783614147
 30
0.0
  0
VERTEX
  5
67A
330
678
100
AcDbEntity
  8
CSLAYER1
  6
AI-Linetype-5
 62
     4
420
    65535
370
    25
100
AcDbVertex
100
AcDb2dVertex
 10
244.0157434073146
 20
248.4575496141468
 30
0.0
  0
SEQEND
  5
67C
330
678
100
AcDbEntity
  8
CSLAYER1
  6
AI-Linetype-5
 62
     4
420
    65535
370
    25
  0
ENDBLK
  5
677
330
674
100
AcDbEntity
  8
0
100
AcDbBlockEnd
  0
BLOCK
  5
67F
330
67D
100
AcDbEntity
  8
0
100
AcDbBlockBegin
  2
block 220
 70
     0
 10
0.0
 20
0.0
 30
0.0
  3
block 220
  1

  0
SPLINE
  5
681
330
67D
100
AcDbEntity
  8
CSLAYER1
  6
AI-Linetype-6
 62
     4
420
    65535
370
    25
100
AcDbSpline
210
0.0
220
0.0
230
1.0
 70
     8
 71
     3
 72
     8
 73
     4
 74
     0
 42
0.0000000001
 43
0.0000000001
 12
1.0
 22
0.0
 32
0.0
 13
1.0
 23
0.0
 33
0.0
 40
0.0
 40
0.0
 40
0.0
 40
0.0
 40
1.0
 40
1.0
 40
1.0
 40
1.0
 10
244.015742883658
 20
251.7007835378608
 30
0.0
 10
243.6560463409566
 20
257.6050804389778
 30
0.0
 10
239.0474566049863
 20
262.3665603288001
 30
0.0
 10
233.1580379026952
 20
262.918693327696
 30
0.0
  0
ENDBLK
  5
680
330
67D
100
AcDbEntity
  8
0
100
AcDbBlockEnd
  0
BLOCK
  5
685
330
683
100
AcDbEntity
  8
0
100
AcDbBlockBegin
  2
block 221
 70
     0
 10
0.0
 20
0.0
 30
0.0
  3
block 221
  1

  0
POLYLINE
  5
687
330
683
100
AcDbEntity
  8
CSLAYER1
 62
     4
420
    65535
370
    25
100
AcDb2dPolyline
 66
     1
 10
0.0
 20
0.0
 30
0.0
  0
VERTEX
  5
688
330
687
100
AcDbEntity
  8
CSLAYER1
 62
     4
420
    65535
370
    25
100
AcDbVertex
100
AcDb2dVertex
 10
232.9713574073144
 20
260.9274246141469
 30
0.0
  0
VERTEX
  5
689
330
687
100
AcDbEntity
  8
CSLAYER1
 62
     4
420
    65535
370
    25
100
AcDbVertex
100
AcDb2dVertex
 10
242.0194444073144
 20
260.0791666141467
 30
0.0
  0
SEQEND
  5
68A
330
687
100
AcDbEntity
  8
CSLAYER1
 62
     4
420
    65535
370
    25
  0
ENDBLK
  5
686
330
683
100
AcDbEntity
  8
0
100
AcDbBlockEnd
  0
BLOCK
  5
68D
330
68B
100
AcDbEntity
  8
0
100
AcDbBlockBegin
  2
block 222
 70
     0
 10
0.0
 20
0.0
 30
0.0
  3
block 222
  1

  0
POLYLINE
  5
68F
330
68B
100
AcDbEntity
  8
CSLAYER1
  6
AI-Linetype-7
 62
     4
420
    65535
370
    25
100
AcDb2dPolyline
 66
     1
 10
0.0
 20
0.0
 30
0.0
  0
VERTEX
  5
690
330
68F
100
AcDbEntity
  8
CSLAYER1
  6
AI-Linetype-7
 62
     4
420
    65535
370
    25
100
AcDbVertex
100
AcDb2dVertex
 10
232.0194444073146
 20
255.2477376141468
 30
0.0
  0
VERTEX
  5
691
330
68F
100
AcDbEntity
  8
CSLAYER1
  6
AI-Linetype-7
 62
     4
420
    65535
370
    25
100
AcDbVertex
100
AcDb2dVertex
 10
232.0194444073146
 20
244.6585956141469
 30
0.0
  0
SEQEND
  5
693
330
68F
100
AcDbEntity
  8
CSLAYER1
  6
AI-Linetype-7
 62
     4
420
    65535
370
    25
  0
ENDBLK
  5
68E
330
68B
100
AcDbEntity
  8
0
100
AcDbBlockEnd
  0
BLOCK
  5
696
330
694
100
AcDbEntity
  8
0
100
AcDbBlockBegin
  2
block 223
 70
     0
 10
0.0
 20
0.0
 30
0.0
  3
block 223
  1

  0
POLYLINE
  5
698
330
694
100
AcDbEntity
  8
CSLAYER1
 62
     4
420
    65535
370
    25
100
AcDb2dPolyline
 66
     1
 10
0.0
 20
0.0
 30
0.0
  0
VERTEX
  5
699
330
698
100
AcDbEntity
  8
CSLAYER1
 62
     4
420
    65535
370
    25
100
AcDbVertex
100
AcDb2dVertex
 10
232.9713574073144
 20
239.2309086141468
 30
0.0
  0
VERTEX
  5
69A
330
698
100
AcDbEntity
  8
CSLAYER1
 62
     4
420
    65535
370
    25
100
AcDbVertex
100
AcDb2dVertex
 10
242.0194444073144
 20
240.079166614147
 30
0.0
  0
SEQEND
  5
69B
330
698
100
AcDbEntity
  8
CSLAYER1
 62
     4
420
    65535
370
    25
  0
ENDBLK
  5
697
330
694
100
AcDbEntity
  8
0
100
AcDbBlockEnd
  0
BLOCK
  5
69E
330
69C
100
AcDbEntity
  8
0
100
AcDbBlockBegin
  2
block 224
 70
     0
 10
0.0
 20
0.0
 30
0.0
  3
block 224
  1

  0
SPLINE
  5
6A0
330
69C
100
AcDbEntity
  8
CSLAYER1
  6
AI-Linetype-8
 62
     4
420
    65535
370
    25
100
AcDbSpline
210
0.0
220
0.0
230
1.0
 70
     8
 71
     3
 72
     8
 73
     4
 74
     0
 42
0.0000000001
 43
0.0000000001
 12
1.0
 22
0.0
 32
0.0
 13
1.0
 23
0.0
 33
0.0
 40
0.0
 40
0.0
 40
0.0
 40
0.0
 40
1.0
 40
1.0
 40
1.0
 40
1.0
 10
233.1580379026952
 20
237.2396399005978
 30
0.0
 10
239.0474566049863
 20
237.7917728994936
 30
0.0
 10
243.6560463409566
 20
242.5532527893159
 30
0.0
 10
244.015742883658
 20
248.4575496904329
 30
0.0
  0
ENDBLK
  5
69F
330
69C
100
AcDbEntity
  8
0
100
AcDbBlockEnd
  0
BLOCK
  5
6A4
330
6A2
100
AcDbEntity
  8
0
100
AcDbBlockBegin
  2
block 225
 70
     0
 10
0.0
 20
0.0
 30
0.0
  3
block 225
  1

  0
POLYLINE
  5
6A6
330
6A2
100
AcDbEntity
  8
CSLAYER1
  6
AI-Linetype-9
 62
     4
420
    65535
370
    25
100
AcDb2dPolyline
 66
     1
 10
0.0
 20
0.0
 30
0.0
  0
VERTEX
  5
6A7
330
6A6
100
AcDbEntity
  8
CSLAYER1
  6
AI-Linetype-9
 62
     4
420
    65535
370
    25
100
AcDbVertex
100
AcDb2dVertex
 10
184.0194444073149
 20
241.9313296141468
 30
0.0
  0
VERTEX
  5
6A8
330
6A6
100
AcDbEntity
  8
CSLAYER1
  6
AI-Linetype-9
 62
     4
420
    65535
370
    25
100
AcDbVertex
100
AcDb2dVertex
 10
184.0194444073149
 20
258.579166614147
 30
0.0
  0
SEQEND
  5
6AA
330
6A6
100
AcDbEntity
  8
CSLAYER1
  6
AI-Linetype-9
 62
     4
420
    65535
370
    25
  0
ENDBLK
  5
6A5
330
6A2
100
AcDbEntity
  8
0
100
AcDbBlockEnd
  0
BLOCK
  5
6AD
330
6AB
100
AcDbEntity
  8
0
100
AcDbBlockBegin
  2
block 226
 70
     0
 10
0.0
 20
0.0
 30
0.0
  3
block 226
  1

  0
POLYLINE
  5
6AF
330
6AB
100
AcDbEntity
  8
CSLAYER1
  6
AI-Linetype-10
 62
     4
420
    65535
370
    25
100
AcDb2dPolyline
 66
     1
 10
0.0
 20
0.0
 30
0.0
  0
VERTEX
  5
6B0
330
6AF
100
AcDbEntity
  8
CSLAYER1
  6
AI-Linetype-10
 62
     4
420
    65535
370
    25
100
AcDbVertex
100
AcDb2dVertex
 10
158.0194444073146
 20
271.9543186141471
 30
0.0
  0
VERTEX
  5
6B1
330
6AF
100
AcDbEntity
  8
CSLAYER1
  6
AI-Linetype-10
 62
     4
420
    65535
370
    25
100
AcDbVertex
100
AcDb2dVertex
 10
158.0194444073146
 20
227.423408614147
 30
0.0
  0
SEQEND
  5
6B3
330
6AF
100
AcDbEntity
  8
CSLAYER1
  6
AI-Linetype-10
 62
     4
420
    65535
370
    25
  0
ENDBLK
  5
6AE
330
6AB
100
AcDbEntity
  8
0
100
AcDbBlockEnd
  0
BLOCK
  5
6B6
330
6B4
100
AcDbEntity
  8
0
100
AcDbBlockBegin
  2
block 227
 70
     0
 10
0.0
 20
0.0
 30
0.0
  3
block 227
  1

  0
POLYLINE
  5
6B8
330
6B4
100
AcDbEntity
  8
CSLAYER1
  6
AI-Linetype-11
 62
     4
420
    65535
370
    25
100
AcDb2dPolyline
 66
     1
 10
0.0
 20
0.0
 30
0.0
  0
VERTEX
  5
6B9
330
6B8
100
AcDbEntity
  8
CSLAYER1
  6
AI-Linetype-11
 62
     4
420
    65535
370
    25
100
AcDbVertex
100
AcDb2dVertex
 10
170.9502054073146
 20
165.8791666141466
 30
0.0
  0
VERTEX
  5
6BA
330
6B8
100
AcDbEntity
  8
CSLAYER1
  6
AI-Linetype-11
 62
     4
420
    65535
370
    25
100
AcDbVertex
100
AcDb2dVertex
 10
179.4576264073143
 20
165.8791666141466
 30
0.0
  0
SEQEND
  5
6BC
330
6B8
100
AcDbEntity
  8
CSLAYER1
  6
AI-Linetype-11
 62
     4
420
    65535
370
    25
  0
ENDBLK
  5
6B7
330
6B4
100
AcDbEntity
  8
0
100
AcDbBlockEnd
  0
BLOCK
  5
6BF
330
6BD
100
AcDbEntity
  8
0
100
AcDbBlockBegin
  2
block 228
 70
     0
 10
0.0
 20
0.0
 30
0.0
  3
block 228
  1

  0
POLYLINE
  5
6C1
330
6BD
100
AcDbEntity
  8
CSLAYER1
  6
AI-Linetype-12
 62
     4
420
    65535
370
    25
100
AcDb2dPolyline
 66
     1
 10
0.0
 20
0.0
 30
0.0
  0
VERTEX
  5
6C2
330
6C1
100
AcDbEntity
  8
CSLAYER1
  6
AI-Linetype-12
 62
     4
420
    65535
370
    25
100
AcDbVertex
100
AcDb2dVertex
 10
145.0886834073146
 20
165.8791666141466
 30
0.0
  0
VERTEX
  5
6C3
330
6C1
100
AcDbEntity
  8
CSLAYER1
  6
AI-Linetype-12
 62
     4
420
    65535
370
    25
100
AcDbVertex
100
AcDb2dVertex
 10
138.1469504073146
 20
165.8791666141466
 30
0.0
  0
SEQEND
  5
6C5
330
6C1
100
AcDbEntity
  8
CSLAYER1
  6
AI-Linetype-12
 62
     4
420
    65535
370
    25
  0
ENDBLK
  5
6C0
330
6BD
100
AcDbEntity
  8
0
100
AcDbBlockEnd
  0
BLOCK
  5
6C8
330
6C6
100
AcDbEntity
  8
0
100
AcDbBlockBegin
  2
block 229
 70
     0
 10
0.0
 20
0.0
 30
0.0
  3
block 229
  1

  0
POLYLINE
  5
6CA
330
6C6
100
AcDbEntity
  8
CSLAYER1
  6
AI-Linetype-13
 62
     4
420
    65535
370
    25
100
AcDb2dPolyline
 66
     1
 10
0.0
 20
0.0
 30
0.0
  0
VERTEX
  5
6CB
330
6CA
100
AcDbEntity
  8
CSLAYER1
  6
AI-Linetype-13
 62
     4
420
    65535
370
    25
100
AcDbVertex
100
AcDb2dVertex
 10
106.0194444073147
 20
183.3791666141469
 30
0.0
  0
VERTEX
  5
6CC
330
6CA
100
AcDbEntity
  8
CSLAYER1
  6
AI-Linetype-13
 62
     4
420
    65535
370
    25
100
AcDbVertex
100
AcDb2dVertex
 10
100.0194444073145
 20
183.3791666141469
 30
0.0
  0
SEQEND
  5
6CE
330
6CA
100
AcDbEntity
  8
CSLAYER1
  6
AI-Linetype-13
 62
     4
420
    65535
370
    25
  0
ENDBLK
  5
6C9
330
6C6
100
AcDbEntity
  8
0
100
AcDbBlockEnd
  0
BLOCK
  5
6D1
330
6CF
100
AcDbEntity
  8
0
100
AcDbBlockBegin
  2
block 230
 70
     0
 10
0.0
 20
0.0
 30
0.0
  3
block 230
  1

  0
POLYLINE
  5
6D3
330
6CF
100
AcDbEntity
  8
CSLAYER1
  6
AI-Linetype-14
 62
     4
420
    65535
370
    25
100
AcDb2dPolyline
 66
     1
 10
0.0
 20
0.0
 30
0.0
  0
VERTEX
  5
6D4
330
6D3
100
AcDbEntity
  8
CSLAYER1
  6
AI-Linetype-14
 62
     4
420
    65535
370
    25
100
AcDbVertex
100
AcDb2dVertex
 10
101.0194444073145
 20
160.3791666141467
 30
0.0
  0
VERTEX
  5
6D5
330
6D3
100
AcDbEntity
  8
CSLAYER1
  6
AI-Linetype-14
 62
     4
420
    65535
370
    25
100
AcDbVertex
100
AcDb2dVertex
 10
98.01944440731474
 20
160.3791666141467
 30
0.0
  0
SEQEND
  5
6D7
330
6D3
100
AcDbEntity
  8
CSLAYER1
  6
AI-Linetype-14
 62
     4
420
    65535
370
    25
  0
ENDBLK
  5
6D2
330
6CF
100
AcDbEntity
  8
0
100
AcDbBlockEnd
  0
BLOCK
  5
6DA
330
6D8
100
AcDbEntity
  8
0
100
AcDbBlockBegin
  2
block 231
 70
     0
 10
0.0
 20
0.0
 30
0.0
  3
block 231
  1

  0
POLYLINE
  5
6DC
330
6D8
100
AcDbEntity
  8
CSLAYER1
  6
AI-Linetype-15
 62
     4
420
    65535
370
    25
100
AcDb2dPolyline
 66
     1
 10
0.0
 20
0.0
 30
0.0
  0
VERTEX
  5
6DD
330
6DC
100
AcDbEntity
  8
CSLAYER1
  6
AI-Linetype-15
 62
     4
420
    65535
370
    25
100
AcDbVertex
100
AcDb2dVertex
 10
101.0194444073145
 20
160.3791666141467
 30
0.0
  0
VERTEX
  5
6DE
330
6DC
100
AcDbEntity
  8
CSLAYER1
  6
AI-Linetype-15
 62
     4
420
    65535
370
    25
100
AcDbVertex
100
AcDb2dVertex
 10
101.0194444073145
 20
157.3791666141466
 30
0.0
  0
SEQEND
  5
6E0
330
6DC
100
AcDbEntity
  8
CSLAYER1
  6
AI-Linetype-15
 62
     4
420
    65535
370
    25
  0
ENDBLK
  5
6DB
330
6D8
100
AcDbEntity
  8
0
100
AcDbBlockEnd
  0
BLOCK
  5
6E3
330
6E1
100
AcDbEntity
  8
0
100
AcDbBlockBegin
  2
block 232
 70
     0
 10
0.0
 20
0.0
 30
0.0
  3
block 232
  1

  0
POLYLINE
  5
6E5
330
6E1
100
AcDbEntity
  8
CSLAYER1
  6
AI-Linetype-16
 62
     4
420
    65535
370
    25
100
AcDb2dPolyline
 66
     1
 10
0.0
 20
0.0
 30
0.0
  0
VERTEX
  5
6E6
330
6E5
100
AcDbEntity
  8
CSLAYER1
  6
AI-Linetype-16
 62
     4
420
    65535
370
    25
100
AcDbVertex
100
AcDb2dVertex
 10
235.9188384073145
 20
165.893105614147
 30
0.0
  0
VERTEX
  5
6E7
330
6E5
100
AcDbEntity
  8
CSLAYER1
  6
AI-Linetype-16
 62
     4
420
    65535
370
    25
100
AcDbVertex
100
AcDb2dVertex
 10
248.0109594073144
 20
165.893105614147
 30
0.0
  0
SEQEND
  5
6E9
330
6E5
100
AcDbEntity
  8
CSLAYER1
  6
AI-Linetype-16
 62
     4
420
    65535
370
    25
  0
ENDBLK
  5
6E4
330
6E1
100
AcDbEntity
  8
0
100
AcDbBlockEnd
  0
BLOCK
  5
6EC
330
6EA
100
AcDbEntity
  8
0
100
AcDbBlockBegin
  2
block 233
 70
     0
 10
0.0
 20
0.0
 30
0.0
  3
block 233
  1

  0
SPLINE
  5
6EE
330
6EA
100
AcDbEntity
  8
CSLAYER1
  6
AI-Linetype-17
 62
     4
420
    65535
370
    25
100
AcDbSpline
210
0.0
220
0.0
230
1.0
 70
     8
 71
     3
 72
     8
 73
     4
 74
     0
 42
0.0000000001
 43
0.0000000001
 12
1.0
 22
0.0
 32
0.0
 13
1.0
 23
0.0
 33
0.0
 40
0.0
 40
0.0
 40
0.0
 40
0.0
 40
1.0
 40
1.0
 40
1.0
 40
1.0
 10
98.01944440731474
 20
185.379166614147
 30
0.0
 10
98.01944440731474
 20
184.2745971144851
 30
0.0
 10
98.91487490765289
 20
183.3791666141469
 30
0.0
 10
100.0194444073145
 20
183.3791666141469
 30
0.0
  0
ENDBLK
  5
6ED
330
6EA
100
AcDbEntity
  8
0
100
AcDbBlockEnd
  0
BLOCK
  5
6F2
330
6F0
100
AcDbEntity
  8
0
100
AcDbBlockBegin
  2
block 234
 70
     0
 10
0.0
 20
0.0
 30
0.0
  3
block 234
  1

  0
POLYLINE
  5
6F4
330
6F0
100
AcDbEntity
  8
CSLAYER1
 62
     3
420
    65280
370
    25
100
AcDb2dPolyline
 66
     1
 10
0.0
 20
0.0
 30
0.0
  0
VERTEX
  5
6F5
330
6F4
100
AcDbEntity
  8
CSLAYER1
 62
     3
420
    65280
370
    25
100
AcDbVertex
100
AcDb2dVertex
 10
101.0194444073145
 20
249.579166614147
 30
0.0
  0
VERTEX
  5
6F6
330
6F4
100
AcDbEntity
  8
CSLAYER1
 62
     3
420
    65280
370
    25
100
AcDbVertex
100
AcDb2dVertex
 10
101.0194444073145
 20
250.5791666141467
 30
0.0
  0
SEQEND
  5
6F7
330
6F4
100
AcDbEntity
  8
CSLAYER1
 62
     3
420
    65280
370
    25
  0
ENDBLK
  5
6F3
330
6F0
100
AcDbEntity
  8
0
100
AcDbBlockEnd
  0
BLOCK
  5
6FA
330
6F8
100
AcDbEntity
  8
0
100
AcDbBlockBegin
  2
block 235
 70
     0
 10
0.0
 20
0.0
 30
0.0
  3
block 235
  1

  0
POLYLINE
  5
6FC
330
6F8
100
AcDbEntity
  8
CSLAYER1
  6
AI-Linetype-18
 62
     4
420
    65535
370
    25
100
AcDb2dPolyline
 66
     1
 10
0.0
 20
0.0
 30
0.0
  0
VERTEX
  5
6FD
330
6FC
100
AcDbEntity
  8
CSLAYER1
  6
AI-Linetype-18
 62
     4
420
    65535
370
    25
100
AcDbVertex
100
AcDb2dVertex
 10
98.01944440731474
 20
250.079166614147
 30
0.0
  0
VERTEX
  5
6FE
330
6FC
100
AcDbEntity
  8
CSLAYER1
  6
AI-Linetype-18
 62
     4
420
    65535
370
    25
100
AcDbVertex
100
AcDb2dVertex
 10
95.05710740731456
 20
250.079166614147
 30
0.0
  0
SEQEND
  5
700
330
6FC
100
AcDbEntity
  8
CSLAYER1
  6
AI-Linetype-18
 62
     4
420
    65535
370
    25
  0
ENDBLK
  5
6FB
330
6F8
100
AcDbEntity
  8
0
100
AcDbBlockEnd
  0
BLOCK
  5
703
330
701
100
AcDbEntity
  8
0
100
AcDbBlockBegin
  2
block 236
 70
     0
 10
0.0
 20
0.0
 30
0.0
  3
block 236
  1

  0
POLYLINE
  5
705
330
701
100
AcDbEntity
  8
CSLAYER1
 62
     3
420
    65280
370
    25
100
AcDb2dPolyline
 66
     1
 10
0.0
 20
0.0
 30
0.0
  0
VERTEX
  5
706
330
705
100
AcDbEntity
  8
CSLAYER1
 62
     3
420
    65280
370
    25
100
AcDbVertex
100
AcDb2dVertex
 10
106.0194444073147
 20
266.0791666141469
 30
0.0
  0
VERTEX
  5
707
330
705
100
AcDbEntity
  8
CSLAYER1
 62
     3
420
    65280
370
    25
100
AcDbVertex
100
AcDb2dVertex
 10
106.0194444073147
 20
250.5791666141467
 30
0.0
  0
SEQEND
  5
708
330
705
100
AcDbEntity
  8
CSLAYER1
 62
     3
420
    65280
370
    25
  0
ENDBLK
  5
704
330
701
100
AcDbEntity
  8
0
100
AcDbBlockEnd
  0
BLOCK
  5
70B
330
709
100
AcDbEntity
  8
0
100
AcDbBlockBegin
  2
block 237
 70
     0
 10
0.0
 20
0.0
 30
0.0
  3
block 237
  1

  0
POLYLINE
  5
70D
330
709
100
AcDbEntity
  8
CSLAYER1
  6
AI-Linetype-19
 62
     4
420
    65535
370
    25
100
AcDb2dPolyline
 66
     1
 10
0.0
 20
0.0
 30
0.0
  0
VERTEX
  5
70E
330
70D
100
AcDbEntity
  8
CSLAYER1
  6
AI-Linetype-19
 62
     4
420
    65535
370
    25
100
AcDbVertex
100
AcDb2dVertex
 10
48.6317304073147
 20
219.3791666141469
 30
0.0
  0
VERTEX
  5
70F
330
70D
100
AcDbEntity
  8
CSLAYER1
  6
AI-Linetype-19
 62
     4
420
    65535
370
    25
100
AcDbVertex
100
AcDb2dVertex
 10
48.6317304073147
 20
225.0344926141469
 30
0.0
  0
SEQEND
  5
711
330
70D
100
AcDbEntity
  8
CSLAYER1
  6
AI-Linetype-19
 62
     4
420
    65535
370
    25
  0
ENDBLK
  5
70C
330
709
100
AcDbEntity
  8
0
100
AcDbBlockEnd
  0
BLOCK
  5
714
330
712
100
AcDbEntity
  8
0
100
AcDbBlockBegin
  2
block 238
 70
     0
 10
0.0
 20
0.0
 30
0.0
  3
block 238
  1

  0
POLYLINE
  5
716
330
712
100
AcDbEntity
  8
CSLAYER1
  6
AI-Linetype-20
 62
     4
420
    65535
370
    25
100
AcDb2dPolyline
 66
     1
 10
0.0
 20
0.0
 30
0.0
  0
VERTEX
  5
717
330
716
100
AcDbEntity
  8
CSLAYER1
  6
AI-Linetype-20
 62
     4
420
    65535
370
    25
100
AcDbVertex
100
AcDb2dVertex
 10
48.6317304073147
 20
157.3791666141466
 30
0.0
  0
VERTEX
  5
718
330
716
100
AcDbEntity
  8
CSLAYER1
  6
AI-Linetype-20
 62
     4
420
    65535
370
    25
100
AcDbVertex
100
AcDb2dVertex
 10
48.6317304073147
 20
153.8343786141469
 30
0.0
  0
SEQEND
  5
71A
330
716
100
AcDbEntity
  8
CSLAYER1
  6
AI-Linetype-20
 62
     4
420
    65535
370
    25
  0
ENDBLK
  5
715
330
712
100
AcDbEntity
  8
0
100
AcDbBlockEnd
  0
BLOCK
  5
71D
330
71B
100
AcDbEntity
  8
0
100
AcDbBlockBegin
  2
block 239
 70
     0
 10
0.0
 20
0.0
 30
0.0
  3
block 239
  1

  0
POLYLINE
  5
71F
330
71B
100
AcDbEntity
  8
CSLAYER1
  6
AI-Linetype-21
 62
     3
420
    65280
370
    25
100
AcDb2dPolyline
 66
     1
 10
0.0
 20
0.0
 30
0.0
  0
VERTEX
  5
720
330
71F
100
AcDbEntity
  8
CSLAYER1
  6
AI-Linetype-21
 62
     3
420
    65280
370
    25
100
AcDbVertex
100
AcDb2dVertex
 10
288.0194444073147
 20
113.0791666141467
 30
0.0
  0
VERTEX
  5
721
330
71F
100
AcDbEntity
  8
CSLAYER1
  6
AI-Linetype-21
 62
     3
420
    65280
370
    25
100
AcDbVertex
100
AcDb2dVertex
 10
288.0194444073147
 20
307.0791666141468
 30
0.0
  0
SEQEND
  5
723
330
71F
100
AcDbEntity
  8
CSLAYER1
  6
AI-Linetype-21
 62
     3
420
    65280
370
    25
  0
ENDBLK
  5
71E
330
71B
100
AcDbEntity
  8
0
100
AcDbBlockEnd
  0
BLOCK
  5
726
330
724
100
AcDbEntity
  8
0
100
AcDbBlockBegin
  2
block 240
 70
     0
 10
0.0
 20
0.0
 30
0.0
  3
block 240
  1

  0
POLYLINE
  5
728
330
724
100
AcDbEntity
  8
CSLAYER1
  6
AI-Linetype-22
 62
     3
420
    65280
370
    25
100
AcDb2dPolyline
 66
     1
 10
0.0
 20
0.0
 30
0.0
  0
VERTEX
  5
729
330
728
100
AcDbEntity
  8
CSLAYER1
  6
AI-Linetype-22
 62
     3
420
    65280
370
    25
100
AcDbVertex
100
AcDb2dVertex
 10
288.0194444073147
 20
307.0791666141468
 30
0.0
  0
VERTEX
  5
72A
330
728
100
AcDbEntity
  8
CSLAYER1
  6
AI-Linetype-22
 62
     3
420
    65280
370
    25
100
AcDbVertex
100
AcDb2dVertex
 10
9.019444407314479
 20
307.0791666141468
 30
0.0
  0
SEQEND
  5
72C
330
728
100
AcDbEntity
  8
CSLAYER1
  6
AI-Linetype-22
 62
     3
420
    65280
370
    25
  0
ENDBLK
  5
727
330
724
100
AcDbEntity
  8
0
100
AcDbBlockEnd
  0
BLOCK
  5
72F
330
72D
100
AcDbEntity
  8
0
100
AcDbBlockBegin
  2
block 241
 70
     0
 10
0.0
 20
0.0
 30
0.0
  3
block 241
  1

  0
POLYLINE
  5
731
330
72D
100
AcDbEntity
  8
CSLAYER1
  6
AI-Linetype-23
 62
     3
420
    65280
370
    25
100
AcDb2dPolyline
 66
     1
 10
0.0
 20
0.0
 30
0.0
  0
VERTEX
  5
732
330
731
100
AcDbEntity
  8
CSLAYER1
  6
AI-Linetype-23
 62
     3
420
    65280
370
    25
100
AcDbVertex
100
AcDb2dVertex
 10
220.0194444073149
 20
135.0791666141468
 30
0.0
  0
VERTEX
  5
733
330
731
100
AcDbEntity
  8
CSLAYER1
  6
AI-Linetype-23
 62
     3
420
    65280
370
    25
100
AcDbVertex
100
AcDb2dVertex
 10
288.0194444073147
 20
135.0791666141468
 30
0.0
  0
SEQEND
  5
735
330
731
100
AcDbEntity
  8
CSLAYER1
  6
AI-Linetype-23
 62
     3
420
    65280
370
    25
  0
ENDBLK
  5
730
330
72D
100
AcDbEntity
  8
0
100
AcDbBlockEnd
  0
BLOCK
  5
738
330
736
100
AcDbEntity
  8
0
100
AcDbBlockBegin
  2
block 242
 70
     0
 10
0.0
 20
0.0
 30
0.0
  3
block 242
  1

  0
POLYLINE
  5
73A
330
736
100
AcDbEntity
  8
CSLAYER1
  6
AI-Linetype-24
 62
     3
420
    65280
370
    25
100
AcDb2dPolyline
 66
     1
 10
0.0
 20
0.0
 30
0.0
  0
VERTEX
  5
73B
330
73A
100
AcDbEntity
  8
CSLAYER1
  6
AI-Linetype-24
 62
     3
420
    65280
370
    25
100
AcDbVertex
100
AcDb2dVertex
 10
220.0194444073149
 20
127.0791666141472
 30
0.0
  0
VERTEX
  5
73C
330
73A
100
AcDbEntity
  8
CSLAYER1
  6
AI-Linetype-24
 62
     3
420
    65280
370
    25
100
AcDbVertex
100
AcDb2dVertex
 10
288.0194444073147
 20
127.0791666141472
 30
0.0
  0
SEQEND
  5
73E
330
73A
100
AcDbEntity
  8
CSLAYER1
  6
AI-Linetype-24
 62
     3
420
    65280
370
    25
  0
ENDBLK
  5
739
330
736
100
AcDbEntity
  8
0
100
AcDbBlockEnd
  0
BLOCK
  5
741
330
73F
100
AcDbEntity
  8
0
100
AcDbBlockBegin
  2
block 243
 70
     0
 10
0.0
 20
0.0
 30
0.0
  3
block 243
  1

  0
POLYLINE
  5
743
330
73F
100
AcDbEntity
  8
CSLAYER1
  6
AI-Linetype-25
 62
     3
420
    65280
370
    25
100
AcDb2dPolyline
 66
     1
 10
0.0
 20
0.0
 30
0.0
  0
VERTEX
  5
744
330
743
100
AcDbEntity
  8
CSLAYER1
  6
AI-Linetype-25
 62
     3
420
    65280
370
    25
100
AcDbVertex
100
AcDb2dVertex
 10
226.0194444073144
 20
113.0791666141467
 30
0.0
  0
VERTEX
  5
745
330
743
100
AcDbEntity
  8
CSLAYER1
  6
AI-Linetype-25
 62
     3
420
    65280
370
    25
100
AcDbVertex
100
AcDb2dVertex
 10
226.0194444073144
 20
143.0791666141471
 30
0.0
  0
SEQEND
  5
747
330
743
100
AcDbEntity
  8
CSLAYER1
  6
AI-Linetype-25
 62
     3
420
    65280
370
    25
  0
ENDBLK
  5
742
330
73F
100
AcDbEntity
  8
0
100
AcDbBlockEnd
  0
BLOCK
  5
74A
330
748
100
AcDbEntity
  8
0
100
AcDbBlockBegin
  2
block 244
 70
     0
 10
0.0
 20
0.0
 30
0.0
  3
block 244
  1

  0
POLYLINE
  5
74C
330
748
100
AcDbEntity
  8
CSLAYER1
  6
AI-Linetype-26
 62
     3
420
    65280
370
    25
100
AcDb2dPolyline
 66
     1
 10
0.0
 20
0.0
 30
0.0
  0
VERTEX
  5
74D
330
74C
100
AcDbEntity
  8
CSLAYER1
  6
AI-Linetype-26
 62
     3
420
    65280
370
    25
100
AcDbVertex
100
AcDb2dVertex
 10
220.0194444073149
 20
143.0791666141471
 30
0.0
  0
VERTEX
  5
74E
330
74C
100
AcDbEntity
  8
CSLAYER1
  6
AI-Linetype-26
 62
     3
420
    65280
370
    25
100
AcDbVertex
100
AcDb2dVertex
 10
220.0194444073149
 20
113.0791666141467
 30
0.0
  0
SEQEND
  5
750
330
74C
100
AcDbEntity
  8
CSLAYER1
  6
AI-Linetype-26
 62
     3
420
    65280
370
    25
  0
ENDBLK
  5
74B
330
748
100
AcDbEntity
  8
0
100
AcDbBlockEnd
  0
BLOCK
  5
753
330
751
100
AcDbEntity
  8
0
100
AcDbBlockBegin
  2
block 245
 70
     0
 10
0.0
 20
0.0
 30
0.0
  3
block 245
  1

  0
POLYLINE
  5
755
330
751
100
AcDbEntity
  8
CSLAYER1
  6
AI-Linetype-27
 62
     3
420
    65280
370
    25
100
AcDb2dPolyline
 66
     1
 10
0.0
 20
0.0
 30
0.0
  0
VERTEX
  5
756
330
755
100
AcDbEntity
  8
CSLAYER1
  6
AI-Linetype-27
 62
     3
420
    65280
370
    25
100
AcDbVertex
100
AcDb2dVertex
 10
190.0194444073144
 20
113.0791666141467
 30
0.0
  0
VERTEX
  5
757
330
755
100
AcDbEntity
  8
CSLAYER1
  6
AI-Linetype-27
 62
     3
420
    65280
370
    25
100
AcDbVertex
100
AcDb2dVertex
 10
190.0194444073144
 20
143.0791666141471
 30
0.0
  0
SEQEND
  5
759
330
755
100
AcDbEntity
  8
CSLAYER1
  6
AI-Linetype-27
 62
     3
420
    65280
370
    25
  0
ENDBLK
  5
754
330
751
100
AcDbEntity
  8
0
100
AcDbBlockEnd
  0
ENDSEC
  0
SECTION
  2
ENTITIES
  0
INSERT
  5
42
330
1F
100
AcDbEntity
  8
CSLAYER1
100
AcDbBlockReference
  2
block 2
 10
0.0
 20
0.0
 30
0.0
  0
INSERT
  5
4A
330
1F
100
AcDbEntity
  8
CSLAYER1
100
AcDbBlockReference
  2
block 3
 10
0.0
 20
0.0
 30
0.0
  0
INSERT
  5
52
330
1F
100
AcDbEntity
  8
CSLAYER1
100
AcDbBlockReference
  2
block 4
 10
0.0
 20
0.0
 30
0.0
  0
INSERT
  5
5A
330
1F
100
AcDbEntity
  8
CSLAYER1
100
AcDbBlockReference
  2
block 5
 10
0.0
 20
0.0
 30
0.0
  0
INSERT
  5
62
330
1F
100
AcDbEntity
  8
CSLAYER1
100
AcDbBlockReference
  2
block 6
 10
0.0
 20
0.0
 30
0.0
  0
INSERT
  5
67
330
1F
100
AcDbEntity
  8
CSLAYER1
100
AcDbBlockReference
  2
block 7
 10
0.0
 20
0.0
 30
0.0
  0
INSERT
  5
6C
330
1F
100
AcDbEntity
  8
CSLAYER1
100
AcDbBlockReference
  2
block 8
 10
0.0
 20
0.0
 30
0.0
  0
INSERT
  5
74
330
1F
100
AcDbEntity
  8
CSLAYER1
100
AcDbBlockReference
  2
block 9
 10
0.0
 20
0.0
 30
0.0
  0
INSERT
  5
7C
330
1F
100
AcDbEntity
  8
CSLAYER1
100
AcDbBlockReference
  2
block 10
 10
0.0
 20
0.0
 30
0.0
  0
INSERT
  5
84
330
1F
100
AcDbEntity
  8
CSLAYER1
100
AcDbBlockReference
  2
block 11
 10
0.0
 20
0.0
 30
0.0
  0
INSERT
  5
89
330
1F
100
AcDbEntity
  8
CSLAYER1
100
AcDbBlockReference
  2
block 12
 10
0.0
 20
0.0
 30
0.0
  0
INSERT
  5
91
330
1F
100
AcDbEntity
  8
CSLAYER1
100
AcDbBlockReference
  2
block 13
 10
0.0
 20
0.0
 30
0.0
  0
INSERT
  5
99
330
1F
100
AcDbEntity
  8
CSLAYER1
100
AcDbBlockReference
  2
block 14
 10
0.0
 20
0.0
 30
0.0
  0
INSERT
  5
A1
330
1F
100
AcDbEntity
  8
CSLAYER1
100
AcDbBlockReference
  2
block 15
 10
0.0
 20
0.0
 30
0.0
  0
INSERT
  5
A9
330
1F
100
AcDbEntity
  8
CSLAYER1
100
AcDbBlockReference
  2
block 16
 10
0.0
 20
0.0
 30
0.0
  0
INSERT
  5
B1
330
1F
100
AcDbEntity
  8
CSLAYER1
100
AcDbBlockReference
  2
block 17
 10
0.0
 20
0.0
 30
0.0
  0
INSERT
  5
B9
330
1F
100
AcDbEntity
  8
CSLAYER1
100
AcDbBlockReference
  2
block 18
 10
0.0
 20
0.0
 30
0.0
  0
INSERT
  5
C1
330
1F
100
AcDbEntity
  8
CSLAYER1
100
AcDbBlockReference
  2
block 19
 10
0.0
 20
0.0
 30
0.0
  0
INSERT
  5
C9
330
1F
100
AcDbEntity
  8
CSLAYER1
100
AcDbBlockReference
  2
block 20
 10
0.0
 20
0.0
 30
0.0
  0
INSERT
  5
CE
330
1F
100
AcDbEntity
  8
CSLAYER1
100
AcDbBlockReference
  2
block 21
 10
0.0
 20
0.0
 30
0.0
  0
INSERT
  5
D6
330
1F
100
AcDbEntity
  8
CSLAYER1
100
AcDbBlockReference
  2
block 22
 10
0.0
 20
0.0
 30
0.0
  0
INSERT
  5
DE
330
1F
100
AcDbEntity
  8
CSLAYER1
100
AcDbBlockReference
  2
block 23
 10
0.0
 20
0.0
 30
0.0
  0
INSERT
  5
E6
330
1F
100
AcDbEntity
  8
CSLAYER1
100
AcDbBlockReference
  2
block 24
 10
0.0
 20
0.0
 30
0.0
  0
INSERT
  5
EE
330
1F
100
AcDbEntity
  8
CSLAYER1
100
AcDbBlockReference
  2
block 25
 10
0.0
 20
0.0
 30
0.0
  0
INSERT
  5
F6
330
1F
100
AcDbEntity
  8
CSLAYER1
100
AcDbBlockReference
  2
block 26
 10
0.0
 20
0.0
 30
0.0
  0
INSERT
  5
FE
330
1F
100
AcDbEntity
  8
CSLAYER1
100
AcDbBlockReference
  2
block 27
 10
0.0
 20
0.0
 30
0.0
  0
INSERT
  5
106
330
1F
100
AcDbEntity
  8
CSLAYER1
100
AcDbBlockReference
  2
block 28
 10
0.0
 20
0.0
 30
0.0
  0
INSERT
  5
10E
330
1F
100
AcDbEntity
  8
CSLAYER1
100
AcDbBlockReference
  2
block 29
 10
0.0
 20
0.0
 30
0.0
  0
INSERT
  5
116
330
1F
100
AcDbEntity
  8
CSLAYER1
100
AcDbBlockReference
  2
block 30
 10
0.0
 20
0.0
 30
0.0
  0
INSERT
  5
11E
330
1F
100
AcDbEntity
  8
CSLAYER1
100
AcDbBlockReference
  2
block 31
 10
0.0
 20
0.0
 30
0.0
  0
INSERT
  5
126
330
1F
100
AcDbEntity
  8
CSLAYER1
100
AcDbBlockReference
  2
block 32
 10
0.0
 20
0.0
 30
0.0
  0
INSERT
  5
12B
330
1F
100
AcDbEntity
  8
CSLAYER1
100
AcDbBlockReference
  2
block 33
 10
0.0
 20
0.0
 30
0.0
  0
INSERT
  5
133
330
1F
100
AcDbEntity
  8
CSLAYER1
100
AcDbBlockReference
  2
block 34
 10
0.0
 20
0.0
 30
0.0
  0
INSERT
  5
138
330
1F
100
AcDbEntity
  8
CSLAYER1
100
AcDbBlockReference
  2
block 35
 10
0.0
 20
0.0
 30
0.0
  0
INSERT
  5
13D
330
1F
100
AcDbEntity
  8
CSLAYER1
100
AcDbBlockReference
  2
block 36
 10
0.0
 20
0.0
 30
0.0
  0
INSERT
  5
145
330
1F
100
AcDbEntity
  8
CSLAYER1
100
AcDbBlockReference
  2
block 37
 10
0.0
 20
0.0
 30
0.0
  0
INSERT
  5
14A
330
1F
100
AcDbEntity
  8
CSLAYER1
100
AcDbBlockReference
  2
block 38
 10
0.0
 20
0.0
 30
0.0
  0
INSERT
  5
14F
330
1F
100
AcDbEntity
  8
CSLAYER1
100
AcDbBlockReference
  2
block 39
 10
0.0
 20
0.0
 30
0.0
  0
INSERT
  5
157
330
1F
100
AcDbEntity
  8
CSLAYER1
100
AcDbBlockReference
  2
block 40
 10
0.0
 20
0.0
 30
0.0
  0
INSERT
  5
15F
330
1F
100
AcDbEntity
  8
CSLAYER1
100
AcDbBlockReference
  2
block 41
 10
0.0
 20
0.0
 30
0.0
  0
INSERT
  5
167
330
1F
100
AcDbEntity
  8
CSLAYER1
100
AcDbBlockReference
  2
block 42
 10
0.0
 20
0.0
 30
0.0
  0
INSERT
  5
16F
330
1F
100
AcDbEntity
  8
CSLAYER1
100
AcDbBlockReference
  2
block 43
 10
0.0
 20
0.0
 30
0.0
  0
INSERT
  5
177
330
1F
100
AcDbEntity
  8
CSLAYER1
100
AcDbBlockReference
  2
block 44
 10
0.0
 20
0.0
 30
0.0
  0
INSERT
  5
17F
330
1F
100
AcDbEntity
  8
CSLAYER1
100
AcDbBlockReference
  2
block 45
 10
0.0
 20
0.0
 30
0.0
  0
INSERT
  5
187
330
1F
100
AcDbEntity
  8
CSLAYER1
100
AcDbBlockReference
  2
block 46
 10
0.0
 20
0.0
 30
0.0
  0
INSERT
  5
18C
330
1F
100
AcDbEntity
  8
CSLAYER1
100
AcDbBlockReference
  2
block 47
 10
0.0
 20
0.0
 30
0.0
  0
INSERT
  5
194
330
1F
100
AcDbEntity
  8
CSLAYER1
100
AcDbBlockReference
  2
block 48
 10
0.0
 20
0.0
 30
0.0
  0
INSERT
  5
19C
330
1F
100
AcDbEntity
  8
CSLAYER1
100
AcDbBlockReference
  2
block 49
 10
0.0
 20
0.0
 30
0.0
  0
INSERT
  5
1A4
330
1F
100
AcDbEntity
  8
CSLAYER1
100
AcDbBlockReference
  2
block 50
 10
0.0
 20
0.0
 30
0.0
  0
INSERT
  5
1AC
330
1F
100
AcDbEntity
  8
CSLAYER1
100
AcDbBlockReference
  2
block 51
 10
0.0
 20
0.0
 30
0.0
  0
INSERT
  5
1B4
330
1F
100
AcDbEntity
  8
CSLAYER1
100
AcDbBlockReference
  2
block 52
 10
0.0
 20
0.0
 30
0.0
  0
INSERT
  5
1BC
330
1F
100
AcDbEntity
  8
CSLAYER1
100
AcDbBlockReference
  2
block 53
 10
0.0
 20
0.0
 30
0.0
  0
INSERT
  5
1C4
330
1F
100
AcDbEntity
  8
CSLAYER1
100
AcDbBlockReference
  2
block 54
 10
0.0
 20
0.0
 30
0.0
  0
INSERT
  5
1C9
330
1F
100
AcDbEntity
  8
CSLAYER1
100
AcDbBlockReference
  2
block 55
 10
0.0
 20
0.0
 30
0.0
  0
INSERT
  5
1D1
330
1F
100
AcDbEntity
  8
CSLAYER1
100
AcDbBlockReference
  2
block 56
 10
0.0
 20
0.0
 30
0.0
  0
INSERT
  5
1D9
330
1F
100
AcDbEntity
  8
CSLAYER1
100
AcDbBlockReference
  2
block 57
 10
0.0
 20
0.0
 30
0.0
  0
INSERT
  5
1E1
330
1F
100
AcDbEntity
  8
CSLAYER1
100
AcDbBlockReference
  2
block 58
 10
0.0
 20
0.0
 30
0.0
  0
INSERT
  5
1E9
330
1F
100
AcDbEntity
  8
CSLAYER1
100
AcDbBlockReference
  2
block 59
 10
0.0
 20
0.0
 30
0.0
  0
INSERT
  5
1F1
330
1F
100
AcDbEntity
  8
CSLAYER1
100
AcDbBlockReference
  2
block 60
 10
0.0
 20
0.0
 30
0.0
  0
INSERT
  5
1F9
330
1F
100
AcDbEntity
  8
CSLAYER1
100
AcDbBlockReference
  2
block 61
 10
0.0
 20
0.0
 30
0.0
  0
INSERT
  5
201
330
1F
100
AcDbEntity
  8
CSLAYER1
100
AcDbBlockReference
  2
block 62
 10
0.0
 20
0.0
 30
0.0
  0
INSERT
  5
206
330
1F
100
AcDbEntity
  8
CSLAYER1
100
AcDbBlockReference
  2
block 63
 10
0.0
 20
0.0
 30
0.0
  0
INSERT
  5
20E
330
1F
100
AcDbEntity
  8
CSLAYER1
100
AcDbBlockReference
  2
block 64
 10
0.0
 20
0.0
 30
0.0
  0
INSERT
  5
216
330
1F
100
AcDbEntity
  8
CSLAYER1
100
AcDbBlockReference
  2
block 65
 10
0.0
 20
0.0
 30
0.0
  0
INSERT
  5
21E
330
1F
100
AcDbEntity
  8
CSLAYER1
100
AcDbBlockReference
  2
block 66
 10
0.0
 20
0.0
 30
0.0
  0
INSERT
  5
226
330
1F
100
AcDbEntity
  8
CSLAYER1
100
AcDbBlockReference
  2
block 67
 10
0.0
 20
0.0
 30
0.0
  0
INSERT
  5
22E
330
1F
100
AcDbEntity
  8
CSLAYER1
100
AcDbBlockReference
  2
block 68
 10
0.0
 20
0.0
 30
0.0
  0
INSERT
  5
236
330
1F
100
AcDbEntity
  8
CSLAYER1
100
AcDbBlockReference
  2
block 69
 10
0.0
 20
0.0
 30
0.0
  0
INSERT
  5
23E
330
1F
100
AcDbEntity
  8
CSLAYER1
100
AcDbBlockReference
  2
block 70
 10
0.0
 20
0.0
 30
0.0
  0
INSERT
  5
243
330
1F
100
AcDbEntity
  8
CSLAYER1
100
AcDbBlockReference
  2
block 71
 10
0.0
 20
0.0
 30
0.0
  0
INSERT
  5
24B
330
1F
100
AcDbEntity
  8
CSLAYER1
100
AcDbBlockReference
  2
block 72
 10
0.0
 20
0.0
 30
0.0
  0
INSERT
  5
253
330
1F
100
AcDbEntity
  8
CSLAYER1
100
AcDbBlockReference
  2
block 73
 10
0.0
 20
0.0
 30
0.0
  0
INSERT
  5
25B
330
1F
100
AcDbEntity
  8
CSLAYER1
100
AcDbBlockReference
  2
block 74
 10
0.0
 20
0.0
 30
0.0
  0
INSERT
  5
260
330
1F
100
AcDbEntity
  8
CSLAYER1
100
AcDbBlockReference
  2
block 75
 10
0.0
 20
0.0
 30
0.0
  0
INSERT
  5
268
330
1F
100
AcDbEntity
  8
CSLAYER1
100
AcDbBlockReference
  2
block 76
 10
0.0
 20
0.0
 30
0.0
  0
INSERT
  5
270
330
1F
100
AcDbEntity
  8
CSLAYER1
100
AcDbBlockReference
  2
block 77
 10
0.0
 20
0.0
 30
0.0
  0
INSERT
  5
278
330
1F
100
AcDbEntity
  8
CSLAYER1
100
AcDbBlockReference
  2
block 78
 10
0.0
 20
0.0
 30
0.0
  0
INSERT
  5
280
330
1F
100
AcDbEntity
  8
CSLAYER1
100
AcDbBlockReference
  2
block 79
 10
0.0
 20
0.0
 30
0.0
  0
INSERT
  5
288
330
1F
100
AcDbEntity
  8
CSLAYER1
100
AcDbBlockReference
  2
block 80
 10
0.0
 20
0.0
 30
0.0
  0
INSERT
  5
290
330
1F
100
AcDbEntity
  8
CSLAYER1
100
AcDbBlockReference
  2
block 81
 10
0.0
 20
0.0
 30
0.0
  0
INSERT
  5
298
330
1F
100
AcDbEntity
  8
CSLAYER1
100
AcDbBlockReference
  2
block 82
 10
0.0
 20
0.0
 30
0.0
  0
INSERT
  5
29D
330
1F
100
AcDbEntity
  8
CSLAYER1
100
AcDbBlockReference
  2
block 83
 10
0.0
 20
0.0
 30
0.0
  0
INSERT
  5
2A5
330
1F
100
AcDbEntity
  8
CSLAYER1
100
AcDbBlockReference
  2
block 84
 10
0.0
 20
0.0
 30
0.0
  0
INSERT
  5
2AD
330
1F
100
AcDbEntity
  8
CSLAYER1
100
AcDbBlockReference
  2
block 85
 10
0.0
 20
0.0
 30
0.0
  0
INSERT
  5
2B5
330
1F
100
AcDbEntity
  8
CSLAYER1
100
AcDbBlockReference
  2
block 86
 10
0.0
 20
0.0
 30
0.0
  0
INSERT
  5
2BD
330
1F
100
AcDbEntity
  8
CSLAYER1
100
AcDbBlockReference
  2
block 87
 10
0.0
 20
0.0
 30
0.0
  0
INSERT
  5
2C5
330
1F
100
AcDbEntity
  8
CSLAYER1
100
AcDbBlockReference
  2
block 88
 10
0.0
 20
0.0
 30
0.0
  0
INSERT
  5
2CD
330
1F
100
AcDbEntity
  8
CSLAYER1
100
AcDbBlockReference
  2
block 89
 10
0.0
 20
0.0
 30
0.0
  0
INSERT
  5
2D2
330
1F
100
AcDbEntity
  8
CSLAYER1
100
AcDbBlockReference
  2
block 90
 10
0.0
 20
0.0
 30
0.0
  0
INSERT
  5
2DA
330
1F
100
AcDbEntity
  8
CSLAYER1
100
AcDbBlockReference
  2
block 91
 10
0.0
 20
0.0
 30
0.0
  0
INSERT
  5
2E2
330
1F
100
AcDbEntity
  8
CSLAYER1
100
AcDbBlockReference
  2
block 92
 10
0.0
 20
0.0
 30
0.0
  0
INSERT
  5
2EA
330
1F
100
AcDbEntity
  8
CSLAYER1
100
AcDbBlockReference
  2
block 93
 10
0.0
 20
0.0
 30
0.0
  0
INSERT
  5
2F2
330
1F
100
AcDbEntity
  8
CSLAYER1
100
AcDbBlockReference
  2
block 94
 10
0.0
 20
0.0
 30
0.0
  0
INSERT
  5
2FA
330
1F
100
AcDbEntity
  8
CSLAYER1
100
AcDbBlockReference
  2
block 95
 10
0.0
 20
0.0
 30
0.0
  0
INSERT
  5
2FF
330
1F
100
AcDbEntity
  8
CSLAYER1
100
AcDbBlockReference
  2
block 96
 10
0.0
 20
0.0
 30
0.0
  0
INSERT
  5
307
330
1F
100
AcDbEntity
  8
CSLAYER1
100
AcDbBlockReference
  2
block 97
 10
0.0
 20
0.0
 30
0.0
  0
INSERT
  5
30F
330
1F
100
AcDbEntity
  8
CSLAYER1
100
AcDbBlockReference
  2
block 98
 10
0.0
 20
0.0
 30
0.0
  0
INSERT
  5
317
330
1F
100
AcDbEntity
  8
CSLAYER1
100
AcDbBlockReference
  2
block 99
 10
0.0
 20
0.0
 30
0.0
  0
INSERT
  5
31F
330
1F
100
AcDbEntity
  8
CSLAYER1
100
AcDbBlockReference
  2
block 100
 10
0.0
 20
0.0
 30
0.0
  0
INSERT
  5
327
330
1F
100
AcDbEntity
  8
CSLAYER1
100
AcDbBlockReference
  2
block 101
 10
0.0
 20
0.0
 30
0.0
  0
INSERT
  5
32C
330
1F
100
AcDbEntity
  8
CSLAYER1
100
AcDbBlockReference
  2
block 102
 10
0.0
 20
0.0
 30
0.0
  0
INSERT
  5
331
330
1F
100
AcDbEntity
  8
CSLAYER1
100
AcDbBlockReference
  2
block 103
 10
0.0
 20
0.0
 30
0.0
  0
INSERT
  5
336
330
1F
100
AcDbEntity
  8
CSLAYER1
100
AcDbBlockReference
  2
block 104
 10
0.0
 20
0.0
 30
0.0
  0
INSERT
  5
33E
330
1F
100
AcDbEntity
  8
CSLAYER1
100
AcDbBlockReference
  2
block 105
 10
0.0
 20
0.0
 30
0.0
  0
INSERT
  5
346
330
1F
100
AcDbEntity
  8
CSLAYER1
100
AcDbBlockReference
  2
block 106
 10
0.0
 20
0.0
 30
0.0
  0
INSERT
  5
34E
330
1F
100
AcDbEntity
  8
CSLAYER1
100
AcDbBlockReference
  2
block 107
 10
0.0
 20
0.0
 30
0.0
  0
INSERT
  5
356
330
1F
100
AcDbEntity
  8
CSLAYER1
100
AcDbBlockReference
  2
block 108
 10
0.0
 20
0.0
 30
0.0
  0
INSERT
  5
35E
330
1F
100
AcDbEntity
  8
CSLAYER1
100
AcDbBlockReference
  2
block 109
 10
0.0
 20
0.0
 30
0.0
  0
INSERT
  5
366
330
1F
100
AcDbEntity
  8
CSLAYER1
100
AcDbBlockReference
  2
block 110
 10
0.0
 20
0.0
 30
0.0
  0
INSERT
  5
36E
330
1F
100
AcDbEntity
  8
CSLAYER1
100
AcDbBlockReference
  2
block 111
 10
0.0
 20
0.0
 30
0.0
  0
INSERT
  5
376
330
1F
100
AcDbEntity
  8
CSLAYER1
100
AcDbBlockReference
  2
block 112
 10
0.0
 20
0.0
 30
0.0
  0
INSERT
  5
37E
330
1F
100
AcDbEntity
  8
CSLAYER1
100
AcDbBlockReference
  2
block 113
 10
0.0
 20
0.0
 30
0.0
  0
INSERT
  5
386
330
1F
100
AcDbEntity
  8
CSLAYER1
100
AcDbBlockReference
  2
block 114
 10
0.0
 20
0.0
 30
0.0
  0
INSERT
  5
38E
330
1F
100
AcDbEntity
  8
CSLAYER1
100
AcDbBlockReference
  2
block 115
 10
0.0
 20
0.0
 30
0.0
  0
INSERT
  5
396
330
1F
100
AcDbEntity
  8
CSLAYER1
100
AcDbBlockReference
  2
block 116
 10
0.0
 20
0.0
 30
0.0
  0
INSERT
  5
39E
330
1F
100
AcDbEntity
  8
CSLAYER1
100
AcDbBlockReference
  2
block 117
 10
0.0
 20
0.0
 30
0.0
  0
INSERT
  5
3A6
330
1F
100
AcDbEntity
  8
CSLAYER1
100
AcDbBlockReference
  2
block 118
 10
0.0
 20
0.0
 30
0.0
  0
INSERT
  5
3AB
330
1F
100
AcDbEntity
  8
CSLAYER1
100
AcDbBlockReference
  2
block 119
 10
0.0
 20
0.0
 30
0.0
  0
INSERT
  5
3B0
330
1F
100
AcDbEntity
  8
CSLAYER1
100
AcDbBlockReference
  2
block 120
 10
0.0
 20
0.0
 30
0.0
  0
INSERT
  5
3B8
330
1F
100
AcDbEntity
  8
CSLAYER1
100
AcDbBlockReference
  2
block 121
 10
0.0
 20
0.0
 30
0.0
  0
INSERT
  5
3C0
330
1F
100
AcDbEntity
  8
CSLAYER1
100
AcDbBlockReference
  2
block 122
 10
0.0
 20
0.0
 30
0.0
  0
INSERT
  5
3C8
330
1F
100
AcDbEntity
  8
CSLAYER1
100
AcDbBlockReference
  2
block 123
 10
0.0
 20
0.0
 30
0.0
  0
INSERT
  5
3D0
330
1F
100
AcDbEntity
  8
CSLAYER1
100
AcDbBlockReference
  2
block 124
 10
0.0
 20
0.0
 30
0.0
  0
INSERT
  5
3D8
330
1F
100
AcDbEntity
  8
CSLAYER1
100
AcDbBlockReference
  2
block 125
 10
0.0
 20
0.0
 30
0.0
  0
INSERT
  5
3E0
330
1F
100
AcDbEntity
  8
CSLAYER1
100
AcDbBlockReference
  2
block 126
 10
0.0
 20
0.0
 30
0.0
  0
INSERT
  5
3E5
330
1F
100
AcDbEntity
  8
CSLAYER1
100
AcDbBlockReference
  2
block 127
 10
0.0
 20
0.0
 30
0.0
  0
INSERT
  5
3ED
330
1F
100
AcDbEntity
  8
CSLAYER1
100
AcDbBlockReference
  2
block 128
 10
0.0
 20
0.0
 30
0.0
  0
INSERT
  5
3F5
330
1F
100
AcDbEntity
  8
CSLAYER1
100
AcDbBlockReference
  2
block 129
 10
0.0
 20
0.0
 30
0.0
  0
INSERT
  5
3FD
330
1F
100
AcDbEntity
  8
CSLAYER1
100
AcDbBlockReference
  2
block 130
 10
0.0
 20
0.0
 30
0.0
  0
INSERT
  5
402
330
1F
100
AcDbEntity
  8
CSLAYER1
100
AcDbBlockReference
  2
block 131
 10
0.0
 20
0.0
 30
0.0
  0
INSERT
  5
40A
330
1F
100
AcDbEntity
  8
CSLAYER1
100
AcDbBlockReference
  2
block 132
 10
0.0
 20
0.0
 30
0.0
  0
INSERT
  5
412
330
1F
100
AcDbEntity
  8
CSLAYER1
100
AcDbBlockReference
  2
block 133
 10
0.0
 20
0.0
 30
0.0
  0
INSERT
  5
41A
330
1F
100
AcDbEntity
  8
CSLAYER1
100
AcDbBlockReference
  2
block 134
 10
0.0
 20
0.0
 30
0.0
  0
INSERT
  5
422
330
1F
100
AcDbEntity
  8
CSLAYER1
100
AcDbBlockReference
  2
block 135
 10
0.0
 20
0.0
 30
0.0
  0
INSERT
  5
42A
330
1F
100
AcDbEntity
  8
CSLAYER1
100
AcDbBlockReference
  2
block 136
 10
0.0
 20
0.0
 30
0.0
  0
INSERT
  5
432
330
1F
100
AcDbEntity
  8
CSLAYER1
100
AcDbBlockReference
  2
block 137
 10
0.0
 20
0.0
 30
0.0
  0
INSERT
  5
43A
330
1F
100
AcDbEntity
  8
CSLAYER1
100
AcDbBlockReference
  2
block 138
 10
0.0
 20
0.0
 30
0.0
  0
INSERT
  5
442
330
1F
100
AcDbEntity
  8
CSLAYER1
100
AcDbBlockReference
  2
block 139
 10
0.0
 20
0.0
 30
0.0
  0
INSERT
  5
44A
330
1F
100
AcDbEntity
  8
CSLAYER1
100
AcDbBlockReference
  2
block 140
 10
0.0
 20
0.0
 30
0.0
  0
INSERT
  5
452
330
1F
100
AcDbEntity
  8
CSLAYER1
100
AcDbBlockReference
  2
block 141
 10
0.0
 20
0.0
 30
0.0
  0
INSERT
  5
45A
330
1F
100
AcDbEntity
  8
CSLAYER1
100
AcDbBlockReference
  2
block 142
 10
0.0
 20
0.0
 30
0.0
  0
INSERT
  5
462
330
1F
100
AcDbEntity
  8
CSLAYER1
100
AcDbBlockReference
  2
block 143
 10
0.0
 20
0.0
 30
0.0
  0
INSERT
  5
46A
330
1F
100
AcDbEntity
  8
CSLAYER1
100
AcDbBlockReference
  2
block 144
 10
0.0
 20
0.0
 30
0.0
  0
INSERT
  5
472
330
1F
100
AcDbEntity
  8
CSLAYER1
100
AcDbBlockReference
  2
block 145
 10
0.0
 20
0.0
 30
0.0
  0
INSERT
  5
47A
330
1F
100
AcDbEntity
  8
CSLAYER1
100
AcDbBlockReference
  2
block 146
 10
0.0
 20
0.0
 30
0.0
  0
INSERT
  5
47F
330
1F
100
AcDbEntity
  8
CSLAYER1
100
AcDbBlockReference
  2
block 147
 10
0.0
 20
0.0
 30
0.0
  0
INSERT
  5
484
330
1F
100
AcDbEntity
  8
CSLAYER1
100
AcDbBlockReference
  2
block 148
 10
0.0
 20
0.0
 30
0.0
  0
INSERT
  5
48C
330
1F
100
AcDbEntity
  8
CSLAYER1
100
AcDbBlockReference
  2
block 149
 10
0.0
 20
0.0
 30
0.0
  0
INSERT
  5
491
330
1F
100
AcDbEntity
  8
CSLAYER1
100
AcDbBlockReference
  2
block 150
 10
0.0
 20
0.0
 30
0.0
  0
INSERT
  5
499
330
1F
100
AcDbEntity
  8
CSLAYER1
100
AcDbBlockReference
  2
block 151
 10
0.0
 20
0.0
 30
0.0
  0
INSERT
  5
4A1
330
1F
100
AcDbEntity
  8
CSLAYER1
100
AcDbBlockReference
  2
block 152
 10
0.0
 20
0.0
 30
0.0
  0
INSERT
  5
4A6
330
1F
100
AcDbEntity
  8
CSLAYER1
100
AcDbBlockReference
  2
block 153
 10
0.0
 20
0.0
 30
0.0
  0
INSERT
  5
4AE
330
1F
100
AcDbEntity
  8
CSLAYER1
100
AcDbBlockReference
  2
block 154
 10
0.0
 20
0.0
 30
0.0
  0
INSERT
  5
4B6
330
1F
100
AcDbEntity
  8
CSLAYER1
100
AcDbBlockReference
  2
block 155
 10
0.0
 20
0.0
 30
0.0
  0
INSERT
  5
4BE
330
1F
100
AcDbEntity
  8
CSLAYER1
100
AcDbBlockReference
  2
block 156
 10
0.0
 20
0.0
 30
0.0
  0
INSERT
  5
4C6
330
1F
100
AcDbEntity
  8
CSLAYER1
100
AcDbBlockReference
  2
block 157
 10
0.0
 20
0.0
 30
0.0
  0
INSERT
  5
4CE
330
1F
100
AcDbEntity
  8
CSLAYER1
100
AcDbBlockReference
  2
block 158
 10
0.0
 20
0.0
 30
0.0
  0
INSERT
  5
4D6
330
1F
100
AcDbEntity
  8
CSLAYER1
100
AcDbBlockReference
  2
block 159
 10
0.0
 20
0.0
 30
0.0
  0
INSERT
  5
4DE
330
1F
100
AcDbEntity
  8
CSLAYER1
100
AcDbBlockReference
  2
block 160
 10
0.0
 20
0.0
 30
0.0
  0
INSERT
  5
4E6
330
1F
100
AcDbEntity
  8
CSLAYER1
100
AcDbBlockReference
  2
block 161
 10
0.0
 20
0.0
 30
0.0
  0
INSERT
  5
4EE
330
1F
100
AcDbEntity
  8
CSLAYER1
100
AcDbBlockReference
  2
block 162
 10
0.0
 20
0.0
 30
0.0
  0
INSERT
  5
4F6
330
1F
100
AcDbEntity
  8
CSLAYER1
100
AcDbBlockReference
  2
block 163
 10
0.0
 20
0.0
 30
0.0
  0
INSERT
  5
4FE
330
1F
100
AcDbEntity
  8
CSLAYER1
100
AcDbBlockReference
  2
block 164
 10
0.0
 20
0.0
 30
0.0
  0
INSERT
  5
503
330
1F
100
AcDbEntity
  8
CSLAYER1
100
AcDbBlockReference
  2
block 165
 10
0.0
 20
0.0
 30
0.0
  0
INSERT
  5
50B
330
1F
100
AcDbEntity
  8
CSLAYER1
100
AcDbBlockReference
  2
block 166
 10
0.0
 20
0.0
 30
0.0
  0
INSERT
  5
513
330
1F
100
AcDbEntity
  8
CSLAYER1
100
AcDbBlockReference
  2
block 167
 10
0.0
 20
0.0
 30
0.0
  0
INSERT
  5
518
330
1F
100
AcDbEntity
  8
CSLAYER1
100
AcDbBlockReference
  2
block 168
 10
0.0
 20
0.0
 30
0.0
  0
INSERT
  5
51D
330
1F
100
AcDbEntity
  8
CSLAYER1
100
AcDbBlockReference
  2
block 169
 10
0.0
 20
0.0
 30
0.0
  0
INSERT
  5
525
330
1F
100
AcDbEntity
  8
CSLAYER1
100
AcDbBlockReference
  2
block 170
 10
0.0
 20
0.0
 30
0.0
  0
INSERT
  5
52A
330
1F
100
AcDbEntity
  8
CSLAYER1
100
AcDbBlockReference
  2
block 171
 10
0.0
 20
0.0
 30
0.0
  0
INSERT
  5
532
330
1F
100
AcDbEntity
  8
CSLAYER1
100
AcDbBlockReference
  2
block 172
 10
0.0
 20
0.0
 30
0.0
  0
INSERT
  5
53A
330
1F
100
AcDbEntity
  8
CSLAYER1
100
AcDbBlockReference
  2
block 173
 10
0.0
 20
0.0
 30
0.0
  0
INSERT
  5
542
330
1F
100
AcDbEntity
  8
CSLAYER1
100
AcDbBlockReference
  2
block 174
 10
0.0
 20
0.0
 30
0.0
  0
INSERT
  5
54A
330
1F
100
AcDbEntity
  8
CSLAYER1
100
AcDbBlockReference
  2
block 175
 10
0.0
 20
0.0
 30
0.0
  0
INSERT
  5
54F
330
1F
100
AcDbEntity
  8
CSLAYER1
100
AcDbBlockReference
  2
block 176
 10
0.0
 20
0.0
 30
0.0
  0
INSERT
  5
557
330
1F
100
AcDbEntity
  8
CSLAYER1
100
AcDbBlockReference
  2
block 177
 10
0.0
 20
0.0
 30
0.0
  0
INSERT
  5
55F
330
1F
100
AcDbEntity
  8
CSLAYER1
100
AcDbBlockReference
  2
block 178
 10
0.0
 20
0.0
 30
0.0
  0
INSERT
  5
564
330
1F
100
AcDbEntity
  8
CSLAYER1
100
AcDbBlockReference
  2
block 179
 10
0.0
 20
0.0
 30
0.0
  0
INSERT
  5
56C
330
1F
100
AcDbEntity
  8
CSLAYER1
100
AcDbBlockReference
  2
block 180
 10
0.0
 20
0.0
 30
0.0
  0
INSERT
  5
571
330
1F
100
AcDbEntity
  8
CSLAYER1
100
AcDbBlockReference
  2
block 181
 10
0.0
 20
0.0
 30
0.0
  0
INSERT
  5
579
330
1F
100
AcDbEntity
  8
CSLAYER1
100
AcDbBlockReference
  2
block 182
 10
0.0
 20
0.0
 30
0.0
  0
INSERT
  5
57E
330
1F
100
AcDbEntity
  8
CSLAYER1
100
AcDbBlockReference
  2
block 183
 10
0.0
 20
0.0
 30
0.0
  0
INSERT
  5
586
330
1F
100
AcDbEntity
  8
CSLAYER1
100
AcDbBlockReference
  2
block 184
 10
0.0
 20
0.0
 30
0.0
  0
INSERT
  5
58B
330
1F
100
AcDbEntity
  8
CSLAYER1
100
AcDbBlockReference
  2
block 185
 10
0.0
 20
0.0
 30
0.0
  0
INSERT
  5
593
330
1F
100
AcDbEntity
  8
CSLAYER1
100
AcDbBlockReference
  2
block 186
 10
0.0
 20
0.0
 30
0.0
  0
INSERT
  5
59B
330
1F
100
AcDbEntity
  8
CSLAYER1
100
AcDbBlockReference
  2
block 187
 10
0.0
 20
0.0
 30
0.0
  0
INSERT
  5
5A3
330
1F
100
AcDbEntity
  8
CSLAYER1
100
AcDbBlockReference
  2
block 188
 10
0.0
 20
0.0
 30
0.0
  0
INSERT
  5
5A8
330
1F
100
AcDbEntity
  8
CSLAYER1
100
AcDbBlockReference
  2
block 189
 10
0.0
 20
0.0
 30
0.0
  0
INSERT
  5
5B0
330
1F
100
AcDbEntity
  8
CSLAYER1
100
AcDbBlockReference
  2
block 190
 10
0.0
 20
0.0
 30
0.0
  0
INSERT
  5
5B8
330
1F
100
AcDbEntity
  8
CSLAYER1
100
AcDbBlockReference
  2
block 191
 10
0.0
 20
0.0
 30
0.0
  0
INSERT
  5
5C0
330
1F
100
AcDbEntity
  8
CSLAYER1
100
AcDbBlockReference
  2
block 192
 10
0.0
 20
0.0
 30
0.0
  0
INSERT
  5
5C8
330
1F
100
AcDbEntity
  8
CSLAYER1
100
AcDbBlockReference
  2
block 193
 10
0.0
 20
0.0
 30
0.0
  0
INSERT
  5
5CD
330
1F
100
AcDbEntity
  8
CSLAYER1
100
AcDbBlockReference
  2
block 194
 10
0.0
 20
0.0
 30
0.0
  0
INSERT
  5
5D5
330
1F
100
AcDbEntity
  8
CSLAYER1
100
AcDbBlockReference
  2
block 195
 10
0.0
 20
0.0
 30
0.0
  0
INSERT
  5
5DD
330
1F
100
AcDbEntity
  8
CSLAYER1
100
AcDbBlockReference
  2
block 196
 10
0.0
 20
0.0
 30
0.0
  0
INSERT
  5
5E2
330
1F
100
AcDbEntity
  8
CSLAYER1
100
AcDbBlockReference
  2
block 197
 10
0.0
 20
0.0
 30
0.0
  0
INSERT
  5
5E7
330
1F
100
AcDbEntity
  8
CSLAYER1
100
AcDbBlockReference
  2
block 198
 10
0.0
 20
0.0
 30
0.0
  0
INSERT
  5
5EF
330
1F
100
AcDbEntity
  8
CSLAYER1
100
AcDbBlockReference
  2
block 199
 10
0.0
 20
0.0
 30
0.0
  0
INSERT
  5
5F7
330
1F
100
AcDbEntity
  8
CSLAYER1
100
AcDbBlockReference
  2
block 200
 10
0.0
 20
0.0
 30
0.0
  0
INSERT
  5
5FF
330
1F
100
AcDbEntity
  8
CSLAYER1
100
AcDbBlockReference
  2
block 201
 10
0.0
 20
0.0
 30
0.0
  0
INSERT
  5
604
330
1F
100
AcDbEntity
  8
CSLAYER1
100
AcDbBlockReference
  2
block 202
 10
0.0
 20
0.0
 30
0.0
  0
INSERT
  5
60C
330
1F
100
AcDbEntity
  8
CSLAYER1
100
AcDbBlockReference
  2
block 203
 10
0.0
 20
0.0
 30
0.0
  0
INSERT
  5
611
330
1F
100
AcDbEntity
  8
CSLAYER1
100
AcDbBlockReference
  2
block 204
 10
0.0
 20
0.0
 30
0.0
  0
INSERT
  5
619
330
1F
100
AcDbEntity
  8
CSLAYER1
100
AcDbBlockReference
  2
block 205
 10
0.0
 20
0.0
 30
0.0
  0
INSERT
  5
621
330
1F
100
AcDbEntity
  8
CSLAYER1
100
AcDbBlockReference
  2
block 206
 10
0.0
 20
0.0
 30
0.0
  0
INSERT
  5
629
330
1F
100
AcDbEntity
  8
CSLAYER1
100
AcDbBlockReference
  2
block 207
 10
0.0
 20
0.0
 30
0.0
  0
INSERT
  5
62E
330
1F
100
AcDbEntity
  8
CSLAYER1
100
AcDbBlockReference
  2
block 208
 10
0.0
 20
0.0
 30
0.0
  0
INSERT
  5
633
330
1F
100
AcDbEntity
  8
CSLAYER1
100
AcDbBlockReference
  2
block 209
 10
0.0
 20
0.0
 30
0.0
  0
INSERT
  5
638
330
1F
100
AcDbEntity
  8
CSLAYER1
100
AcDbBlockReference
  2
block 210
 10
0.0
 20
0.0
 30
0.0
  0
INSERT
  5
640
330
1F
100
AcDbEntity
  8
CSLAYER1
100
AcDbBlockReference
  2
block 211
 10
0.0
 20
0.0
 30
0.0
  0
INSERT
  5
648
330
1F
100
AcDbEntity
  8
CSLAYER1
100
AcDbBlockReference
  2
block 212
 10
0.0
 20
0.0
 30
0.0
  0
INSERT
  5
64D
330
1F
100
AcDbEntity
  8
CSLAYER1
100
AcDbBlockReference
  2
block 213
 10
0.0
 20
0.0
 30
0.0
  0
INSERT
  5
652
330
1F
100
AcDbEntity
  8
CSLAYER1
100
AcDbBlockReference
  2
block 214
 10
0.0
 20
0.0
 30
0.0
  0
INSERT
  5
657
330
1F
100
AcDbEntity
  8
CSLAYER1
100
AcDbBlockReference
  2
block 215
 10
0.0
 20
0.0
 30
0.0
  0
INSERT
  5
660
330
1F
100
AcDbEntity
  8
CSLAYER1
100
AcDbBlockReference
  2
block 216
 10
0.0
 20
0.0
 30
0.0
  0
INSERT
  5
666
330
1F
100
AcDbEntity
  8
CSLAYER1
100
AcDbBlockReference
  2
block 217
 10
0.0
 20
0.0
 30
0.0
  0
INSERT
  5
66C
330
1F
100
AcDbEntity
  8
CSLAYER1
100
AcDbBlockReference
  2
block 218
 10
0.0
 20
0.0
 30
0.0
  0
INSERT
  5
675
330
1F
100
AcDbEntity
  8
CSLAYER1
100
AcDbBlockReference
  2
block 219
 10
0.0
 20
0.0
 30
0.0
  0
INSERT
  5
67E
330
1F
100
AcDbEntity
  8
CSLAYER1
100
AcDbBlockReference
  2
block 220
 10
0.0
 20
0.0
 30
0.0
  0
INSERT
  5
684
330
1F
100
AcDbEntity
  8
CSLAYER1
100
AcDbBlockReference
  2
block 221
 10
0.0
 20
0.0
 30
0.0
  0
INSERT
  5
68C
330
1F
100
AcDbEntity
  8
CSLAYER1
100
AcDbBlockReference
  2
block 222
 10
0.0
 20
0.0
 30
0.0
  0
INSERT
  5
695
330
1F
100
AcDbEntity
  8
CSLAYER1
100
AcDbBlockReference
  2
block 223
 10
0.0
 20
0.0
 30
0.0
  0
INSERT
  5
69D
330
1F
100
AcDbEntity
  8
CSLAYER1
100
AcDbBlockReference
  2
block 224
 10
0.0
 20
0.0
 30
0.0
  0
INSERT
  5
6A3
330
1F
100
AcDbEntity
  8
CSLAYER1
100
AcDbBlockReference
  2
block 225
 10
0.0
 20
0.0
 30
0.0
  0
INSERT
  5
6AC
330
1F
100
AcDbEntity
  8
CSLAYER1
100
AcDbBlockReference
  2
block 226
 10
0.0
 20
0.0
 30
0.0
  0
INSERT
  5
6B5
330
1F
100
AcDbEntity
  8
CSLAYER1
100
AcDbBlockReference
  2
block 227
 10
0.0
 20
0.0
 30
0.0
  0
INSERT
  5
6BE
330
1F
100
AcDbEntity
  8
CSLAYER1
100
AcDbBlockReference
  2
block 228
 10
0.0
 20
0.0
 30
0.0
  0
INSERT
  5
6C7
330
1F
100
AcDbEntity
  8
CSLAYER1
100
AcDbBlockReference
  2
block 229
 10
0.0
 20
0.0
 30
0.0
  0
INSERT
  5
6D0
330
1F
100
AcDbEntity
  8
CSLAYER1
100
AcDbBlockReference
  2
block 230
 10
0.0
 20
0.0
 30
0.0
  0
INSERT
  5
6D9
330
1F
100
AcDbEntity
  8
CSLAYER1
100
AcDbBlockReference
  2
block 231
 10
0.0
 20
0.0
 30
0.0
  0
INSERT
  5
6E2
330
1F
100
AcDbEntity
  8
CSLAYER1
100
AcDbBlockReference
  2
block 232
 10
0.0
 20
0.0
 30
0.0
  0
INSERT
  5
6EB
330
1F
100
AcDbEntity
  8
CSLAYER1
100
AcDbBlockReference
  2
block 233
 10
0.0
 20
0.0
 30
0.0
  0
INSERT
  5
6F1
330
1F
100
AcDbEntity
  8
CSLAYER1
100
AcDbBlockReference
  2
block 234
 10
0.0
 20
0.0
 30
0.0
  0
INSERT
  5
6F9
330
1F
100
AcDbEntity
  8
CSLAYER1
100
AcDbBlockReference
  2
block 235
 10
0.0
 20
0.0
 30
0.0
  0
INSERT
  5
702
330
1F
100
AcDbEntity
  8
CSLAYER1
100
AcDbBlockReference
  2
block 236
 10
0.0
 20
0.0
 30
0.0
  0
INSERT
  5
70A
330
1F
100
AcDbEntity
  8
CSLAYER1
100
AcDbBlockReference
  2
block 237
 10
0.0
 20
0.0
 30
0.0
  0
INSERT
  5
713
330
1F
100
AcDbEntity
  8
CSLAYER1
100
AcDbBlockReference
  2
block 238
 10
0.0
 20
0.0
 30
0.0
  0
INSERT
  5
71C
330
1F
100
AcDbEntity
  8
CSLAYER1
100
AcDbBlockReference
  2
block 239
 10
0.0
 20
0.0
 30
0.0
  0
INSERT
  5
725
330
1F
100
AcDbEntity
  8
CSLAYER1
100
AcDbBlockReference
  2
block 240
 10
0.0
 20
0.0
 30
0.0
  0
INSERT
  5
72E
330
1F
100
AcDbEntity
  8
CSLAYER1
100
AcDbBlockReference
  2
block 241
 10
0.0
 20
0.0
 30
0.0
  0
INSERT
  5
737
330
1F
100
AcDbEntity
  8
CSLAYER1
100
AcDbBlockReference
  2
block 242
 10
0.0
 20
0.0
 30
0.0
  0
INSERT
  5
740
330
1F
100
AcDbEntity
  8
CSLAYER1
100
AcDbBlockReference
  2
block 243
 10
0.0
 20
0.0
 30
0.0
  0
INSERT
  5
749
330
1F
100
AcDbEntity
  8
CSLAYER1
100
AcDbBlockReference
  2
block 244
 10
0.0
 20
0.0
 30
0.0
  0
INSERT
  5
752
330
1F
100
AcDbEntity
  8
CSLAYER1
100
AcDbBlockReference
  2
block 245
 10
0.0
 20
0.0
 30
0.0
  0
ENDSEC
  0
SECTION
  2
OBJECTS
  0
DICTIONARY
  5
C
330
0
100
AcDbDictionary
281
     1
  3
ACAD_GROUP
350
D
  3
ACAD_LAYOUT
350
1A
  3
ACAD_MATERIAL
350
3B
  3
ACAD_MLEADERSTYLE
350
75B
  3
ACAD_MLINESTYLE
350
17
  3
ACAD_PLOTSETTINGS
350
19
  3
ACAD_PLOTSTYLENAME
350
E
  3
ACAD_TABLESTYLE
350
75A
  3
ACAD_VISUALSTYLE
350
2A
  0
SUN
  5
3F
330
29
100
AcDbSun
 90
        1
290
     0
 63
     7
421
 16777215
 40
1.0
291
     1
 91
  2455826
 92
 54000000
292
     0
 70
     2
 71
   256
280
     1
  0
DICTIONARY
  5
D
102
{ACAD_REACTORS
330
C
102
}
330
C
100
AcDbDictionary
281
     1
  0
DICTIONARY
  5
1A
102
{ACAD_REACTORS
330
C
102
}
330
C
100
AcDbDictionary
281
     1
  3
Layout1
350
1E
  3
Layout2
350
26
  3
Model
350
22
  0
DICTIONARY
  5
3B
102
{ACAD_REACTORS
330
C
102
}
330
C
100
AcDbDictionary
281
     1
  3
ByBlock
350
3D
  3
ByLayer
350
3C
  3
Global
350
3E
  0
DICTIONARY
  5
75B
102
{ACAD_REACTORS
330
C
102
}
330
C
100
AcDbDictionary
281
     1
  0
DICTIONARY
  5
17
102
{ACAD_REACTORS
330
C
102
}
330
C
100
AcDbDictionary
281
     1
  3
Standard
350
18
  0
DICTIONARY
  5
19
102
{ACAD_REACTORS
330
C
102
}
330
C
100
AcDbDictionary
281
     1
  0
ACDBDICTIONARYWDFLT
  5
E
102
{ACAD_REACTORS
330
C
102
}
330
C
100
AcDbDictionary
281
     1
  3
Normal
350
F
100
AcDbDictionaryWithDefault
340
F
  0
DICTIONARY
  5
75A
102
{ACAD_REACTORS
330
C
102
}
330
C
100
AcDbDictionary
281
     1
  0
DICTIONARY
  5
2A
102
{ACAD_REACTORS
330
C
102
}
330
C
100
AcDbDictionary
281
     1
  3
2dWireframe
350
2F
  3
3D Hidden
350
31
  3
3dWireframe
350
30
  3
Basic
350
32
  3
Brighten
350
36
  3
ColorChange
350
3A
  3
Conceptual
350
34
  3
Dim
350
35
  3
Facepattern
350
39
  3
Flat
350
2B
  3
FlatWithEdges
350
2C
  3
Gouraud
350
2D
  3
GouraudWithEdges
350
2E
  3
Linepattern
350
38
  3
Realistic
350
33
  3
Thicken
350
37
  0
LAYOUT
  5
1E
102
{ACAD_REACTORS
330
1A
102
}
330
1A
100
AcDbPlotSettings
  1

  2
none_device
  4

  6

 40
0.0
 41
0.0
 42
0.0
 43
0.0
 44
0.0
 45
0.0
 46
0.0
 47
0.0
 48
0.0
 49
0.0
140
0.0
141
0.0
142
1.0
143
1.0
 70
   688
 72
     0
 73
     0
 74
     5
  7

 75
    16
 76
     0
 77
     2
 78
   300
147
1.0
148
0.0
149
0.0
100
AcDbLayout
  1
Layout1
 70
     1
 71
     1
 10
0.0
 20
0.0
 11
12.0
 21
9.0
 12
0.0
 22
0.0
 32
0.0
 14
1.000000000000000E+20
 24
1.000000000000000E+20
 34
1.000000000000000E+20
 15
-1.000000000000000E+20
 25
-1.000000000000000E+20
 35
-1.000000000000000E+20
146
0.0
 13
0.0
 23
0.0
 33
0.0
 16
1.0
 26
0.0
 36
0.0
 17
0.0
 27
1.0
 37
0.0
 76
     0
330
1B
  0
LAYOUT
  5
26
102
{ACAD_REACTORS
330
1A
102
}
330
1A
100
AcDbPlotSettings
  1

  2
none_device
  4

  6

 40
0.0
 41
0.0
 42
0.0
 43
0.0
 44
0.0
 45
0.0
 46
0.0
 47
0.0
 48
0.0
 49
0.0
140
0.0
141
0.0
142
1.0
143
1.0
 70
   688
 72
     0
 73
     0
 74
     5
  7

 75
    16
 76
     0
 77
     2
 78
   300
147
1.0
148
0.0
149
0.0
100
AcDbLayout
  1
Layout2
 70
     1
 71
     2
 10
0.0
 20
0.0
 11
0.0
 21
0.0
 12
0.0
 22
0.0
 32
0.0
 14
0.0
 24
0.0
 34
0.0
 15
0.0
 25
0.0
 35
0.0
146
0.0
 13
0.0
 23
0.0
 33
0.0
 16
1.0
 26
0.0
 36
0.0
 17
0.0
 27
1.0
 37
0.0
 76
     0
330
23
  0
LAYOUT
  5
22
102
{ACAD_REACTORS
330
1A
102
}
330
1A
100
AcDbPlotSettings
  1

  2
none_device
  4

  6

 40
0.0
 41
0.0
 42
0.0
 43
0.0
 44
0.0
 45
0.0
 46
0.0
 47
0.0
 48
0.0
 49
0.0
140
0.0
141
0.0
142
1.0
143
1.0
 70
  1712
 72
     0
 73
     0
 74
     0
  7

 75
     0
 76
     0
 77
     2
 78
   300
147
1.0
148
0.0
149
0.0
100
AcDbLayout
  1
Model
 70
     1
 71
     0
 10
0.0
 20
0.0
 11
12.0
 21
9.0
 12
0.0
 22
0.0
 32
0.0
 14
1.000000000000000E+20
 24
1.000000000000000E+20
 34
1.000000000000000E+20
 15
-1.000000000000000E+20
 25
-1.000000000000000E+20
 35
-1.000000000000000E+20
146
0.0
 13
0.0
 23
0.0
 33
0.0
 16
1.0
 26
0.0
 36
0.0
 17
0.0
 27
1.0
 37
0.0
 76
     0
330
1F
331
29
  0
MATERIAL
  5
3D
102
{ACAD_REACTORS
330
3B
102
}
330
3B
100
AcDbMaterial
  1
ByBlock
 72
     1
 94
      127
  0
MATERIAL
  5
3C
102
{ACAD_REACTORS
330
3B
102
}
330
3B
100
AcDbMaterial
  1
ByLayer
 72
     1
 94
      127
  0
MATERIAL
  5
3E
102
{ACAD_REACTORS
330
3B
102
}
330
3B
100
AcDbMaterial
  1
Global
 72
     1
 94
      127
  0
MLINESTYLE
  5
18
102
{ACAD_REACTORS
330
17
102
}
330
17
100
AcDbMlineStyle
  2
Standard
 70
     0
  3

 62
   256
 51
90.0
 52
90.0
 71
     2
 49
0.5
 62
   256
  6
BYLAYER
 49
-0.5
 62
   256
  6
BYLAYER
  0
ACDBPLACEHOLDER
  5
F
102
{ACAD_REACTORS
330
E
102
}
330
E
  0
VISUALSTYLE
  5
2F
102
{ACAD_REACTORS
330
2A
102
}
330
2A
100
AcDbVisualStyle
  2
2dWireframe
 70
     4
177
     2
291
     0
 71
     0
176
     1
 72
     2
176
     1
 73
     0
176
     1
 90
        0
176
     1
 40
-0.6
176
     1
 41
-30.0
176
     1
 62
     5
 63
     7
421
 16777215
176
     1
 74
     1
176
     1
 91
        4
176
     1
 64
     7
176
     1
 65
   257
176
     1
 75
     1
176
     1
175
     1
176
     1
 42
1.0
176
     1
 92
        0
176
     1
 66
   257
176
     1
 43
1.0
176
     1
 76
     1
176
     1
 77
     6
176
     1
 78
     2
176
     1
 67
     7
176
     1
 79
     5
176
     1
170
     0
176
     1
171
     0
176
     1
290
     0
176
     1
 93
        1
176
     1
 44
0.0
176
     1
173
     0
176
     1
  0
VISUALSTYLE
  5
31
102
{ACAD_REACTORS
330
2A
102
}
330
2A
100
AcDbVisualStyle
  2
3D Hidden
 70
     6
177
     2
291
     0
 71
     1
176
     1
 72
     2
176
     1
 73
     2
176
     1
 90
        0
176
     1
 40
-0.6
176
     1
 41
-30.0
176
     1
 62
     5
 63
     7
421
 16777215
176
     1
 74
     2
176
     1
 91
        2
176
     1
 64
     7
176
     1
 65
   257
176
     1
 75
     2
176
     1
175
     1
176
     1
 42
40.0
176
     1
 92
        0
176
     1
 66
   257
176
     1
 43
1.0
176
     1
 76
     1
176
     1
 77
     6
176
     1
 78
     2
176
     1
 67
     7
176
     1
 79
     3
176
     1
170
     0
176
     1
171
     0
176
     1
290
     0
176
     1
 93
        1
176
     1
 44
0.0
176
     1
173
     0
176
     1
  0
VISUALSTYLE
  5
30
102
{ACAD_REACTORS
330
2A
102
}
330
2A
100
AcDbVisualStyle
  2
3dWireframe
 70
     5
177
     2
291
     0
 71
     0
176
     1
 72
     2
176
     1
 73
     0
176
     1
 90
        0
176
     1
 40
-0.6
176
     1
 41
-30.0
176
     1
 62
     5
 63
     7
421
 16777215
176
     1
 74
     1
176
     1
 91
        4
176
     1
 64
     7
176
     1
 65
   257
176
     1
 75
     1
176
     1
175
     1
176
     1
 42
1.0
176
     1
 92
        0
176
     1
 66
   257
176
     1
 43
1.0
176
     1
 76
     1
176
     1
 77
     6
176
     1
 78
     2
176
     1
 67
     7
176
     1
 79
     5
176
     1
170
     0
176
     1
171
     0
176
     1
290
     0
176
     1
 93
        1
176
     1
 44
0.0
176
     1
173
     0
176
     1
  0
VISUALSTYLE
  5
32
102
{ACAD_REACTORS
330
2A
102
}
330
2A
100
AcDbVisualStyle
  2
Basic
 70
     7
177
     2
291
     1
 71
     1
176
     1
 72
     0
176
     1
 73
     1
176
     1
 90
        0
176
     1
 40
-0.6
176
     1
 41
-30.0
176
     1
 62
     5
 63
     7
421
 16777215
176
     1
 74
     0
176
     1
 91
        4
176
     1
 64
     7
176
     1
 65
   257
176
     1
 75
     1
176
     1
175
     1
176
     1
 42
1.0
176
     1
 92
        8
176
     1
 66
     7
176
     1
 43
1.0
176
     1
 76
     1
176
     1
 77
     6
176
     1
 78
     2
176
     1
 67
     7
176
     1
 79
     5
176
     1
170
     0
176
     1
171
     0
176
     1
290
     0
176
     1
 93
        1
176
     1
 44
0.0
176
     1
173
     0
176
     1
  0
VISUALSTYLE
  5
36
102
{ACAD_REACTORS
330
2A
102
}
330
2A
100
AcDbVisualStyle
  2
Brighten
 70
    12
177
     2
291
     1
 71
     2
176
     1
 72
     2
176
     1
 73
     0
176
     1
 90
        0
176
     1
 40
-0.6
176
     1
 41
-30.0
176
     1
 62
     5
 63
     7
421
 16777215
176
     1
 74
     1
176
     1
 91
        4
176
     1
 64
     7
176
     1
 65
   257
176
     1
 75
     1
176
     1
175
     1
176
     1
 42
1.0
176
     1
 92
        8
176
     1
 66
     7
176
     1
 43
1.0
176
     1
 76
     1
176
     1
 77
     6
176
     1
 78
     2
176
     1
 67
     7
176
     1
 79
     5
176
     1
170
     0
176
     1
171
     0
176
     1
290
     0
176
     1
 93
        1
176
     1
 44
50.0
176
     1
173
     0
176
     1
  0
VISUALSTYLE
  5
3A
102
{ACAD_REACTORS
330
2A
102
}
330
2A
100
AcDbVisualStyle
  2
ColorChange
 70
    16
177
     2
291
     1
 71
     2
176
     1
 72
     2
176
     1
 73
     3
176
     1
 90
        0
176
     1
 40
-0.6
176
     1
 41
-30.0
176
     1
 62
     5
 63
     8
421
  8421504
176
     1
 74
     1
176
     1
 91
        4
176
     1
 64
     7
176
     1
 65
   257
176
     1
 75
     1
176
     1
175
     1
176
     1
 42
1.0
176
     1
 92
        8
176
     1
 66
     8
424
  8421504
176
     1
 43
1.0
176
     1
 76
     1
176
     1
 77
     6
176
     1
 78
     2
176
     1
 67
     7
176
     1
 79
     5
176
     1
170
     0
176
     1
171
     0
176
     1
290
     0
176
     1
 93
        1
176
     1
 44
0.0
176
     1
173
     0
176
     1
  0
VISUALSTYLE
  5
34
102
{ACAD_REACTORS
330
2A
102
}
330
2A
100
AcDbVisualStyle
  2
Conceptual
 70
     9
177
     2
291
     0
 71
     3
176
     1
 72
     2
176
     1
 73
     0
176
     1
 90
        0
176
     1
 40
-0.6
176
     1
 41
-30.0
176
     1
 62
     5
 63
     7
421
 16777215
176
     1
 74
     2
176
     1
 91
        2
176
     1
 64
     7
176
     1
 65
   257
176
     1
 75
     1
176
     1
175
     1
176
     1
 42
40.0
176
     1
 92
        8
176
     1
 66
     7
176
     1
 43
1.0
176
     1
 76
     1
176
     1
 77
     6
176
     1
 78
     2
176
     1
 67
     7
176
     1
 79
     3
176
     1
170
     0
176
     1
171
     0
176
     1
290
     0
176
     1
 93
        1
176
     1
 44
0.0
176
     1
173
     0
176
     1
  0
VISUALSTYLE
  5
35
102
{ACAD_REACTORS
330
2A
102
}
330
2A
100
AcDbVisualStyle
  2
Dim
 70
    11
177
     2
291
     1
 71
     2
176
     1
 72
     2
176
     1
 73
     0
176
     1
 90
        0
176
     1
 40
-0.6
176
     1
 41
-30.0
176
     1
 62
     5
 63
     7
421
 16777215
176
     1
 74
     1
176
     1
 91
        4
176
     1
 64
     7
176
     1
 65
   257
176
     1
 75
     1
176
     1
175
     1
176
     1
 42
1.0
176
     1
 92
        8
176
     1
 66
     7
176
     1
 43
1.0
176
     1
 76
     1
176
     1
 77
     6
176
     1
 78
     2
176
     1
 67
     7
176
     1
 79
     5
176
     1
170
     0
176
     1
171
     0
176
     1
290
     0
176
     1
 93
        1
176
     1
 44
-50.0
176
     1
173
     0
176
     1
  0
VISUALSTYLE
  5
39
102
{ACAD_REACTORS
330
2A
102
}
330
2A
100
AcDbVisualStyle
  2
Facepattern
 70
    15
177
     2
291
     1
 71
     2
176
     1
 72
     2
176
     1
 73
     0
176
     1
 90
        0
176
     1
 40
-0.6
176
     1
 41
-30.0
176
     1
 62
     5
 63
     7
421
 16777215
176
     1
 74
     1
176
     1
 91
        4
176
     1
 64
     7
176
     1
 65
   257
176
     1
 75
     1
176
     1
175
     1
176
     1
 42
1.0
176
     1
 92
        8
176
     1
 66
     7
176
     1
 43
1.0
176
     1
 76
     1
176
     1
 77
     6
176
     1
 78
     2
176
     1
 67
     7
176
     1
 79
     5
176
     1
170
     0
176
     1
171
     0
176
     1
290
     0
176
     1
 93
        1
176
     1
 44
0.0
176
     1
173
     0
176
     1
  0
VISUALSTYLE
  5
2B
102
{ACAD_REACTORS
330
2A
102
}
330
2A
100
AcDbVisualStyle
  2
Flat
 70
     0
177
     2
291
     1
 71
     2
176
     1
 72
     1
176
     1
 73
     1
176
     1
 90
        2
176
     1
 40
-0.6
176
     1
 41
30.0
176
     1
 62
     5
 63
     7
421
 16777215
176
     1
 74
     0
176
     1
 91
        4
176
     1
 64
     7
176
     1
 65
   257
176
     1
 75
     1
176
     1
175
     1
176
     1
 42
1.0
176
     1
 92
        8
176
     1
 66
     7
176
     1
 43
1.0
176
     1
 76
     1
176
     1
 77
     6
176
     1
 78
     2
176
     1
 67
     7
176
     1
 79
     5
176
     1
170
     0
176
     1
171
     0
176
     1
290
     0
176
     1
 93
       13
176
     1
 44
0.0
176
     1
173
     0
176
     1
  0
VISUALSTYLE
  5
2C
102
{ACAD_REACTORS
330
2A
102
}
330
2A
100
AcDbVisualStyle
  2
FlatWithEdges
 70
     1
177
     2
291
     1
 71
     2
176
     1
 72
     1
176
     1
 73
     1
176
     1
 90
        2
176
     1
 40
-0.6
176
     1
 41
30.0
176
     1
 62
     5
 63
     7
421
 16777215
176
     1
 74
     1
176
     1
 91
        4
176
     1
 64
     7
176
     1
 65
   257
176
     1
 75
     1
176
     1
175
     1
176
     1
 42
1.0
176
     1
 92
        0
176
     1
 66
   257
176
     1
 43
1.0
176
     1
 76
     1
176
     1
 77
     6
176
     1
 78
     2
176
     1
 67
     7
176
     1
 79
     5
176
     1
170
     0
176
     1
171
     0
176
     1
290
     0
176
     1
 93
       13
176
     1
 44
0.0
176
     1
173
     0
176
     1
  0
VISUALSTYLE
  5
2D
102
{ACAD_REACTORS
330
2A
102
}
330
2A
100
AcDbVisualStyle
  2
Gouraud
 70
     2
177
     2
291
     1
 71
     2
176
     1
 72
     2
176
     1
 73
     1
176
     1
 90
        2
176
     1
 40
-0.6
176
     1
 41
30.0
176
     1
 62
     5
 63
     7
421
 16777215
176
     1
 74
     0
176
     1
 91
        4
176
     1
 64
     7
176
     1
 65
   257
176
     1
 75
     1
176
     1
175
     1
176
     1
 42
1.0
176
     1
 92
        0
176
     1
 66
     7
176
     1
 43
1.0
176
     1
 76
     1
176
     1
 77
     6
176
     1
 78
     2
176
     1
 67
     7
176
     1
 79
     5
176
     1
170
     0
176
     1
171
     0
176
     1
290
     0
176
     1
 93
       13
176
     1
 44
0.0
176
     1
173
     0
176
     1
  0
VISUALSTYLE
  5
2E
102
{ACAD_REACTORS
330
2A
102
}
330
2A
100
AcDbVisualStyle
  2
GouraudWithEdges
 70
     3
177
     2
291
     1
 71
     2
176
     1
 72
     2
176
     1
 73
     1
176
     1
 90
        2
176
     1
 40
-0.6
176
     1
 41
30.0
176
     1
 62
     5
 63
     7
421
 16777215
176
     1
 74
     1
176
     1
 91
        4
176
     1
 64
     7
176
     1
 65
   257
176
     1
 75
     1
176
     1
175
     1
176
     1
 42
1.0
176
     1
 92
        0
176
     1
 66
   257
176
     1
 43
1.0
176
     1
 76
     1
176
     1
 77
     6
176
     1
 78
     2
176
     1
 67
     7
176
     1
 79
     5
176
     1
170
     0
176
     1
171
     0
176
     1
290
     0
176
     1
 93
       13
176
     1
 44
0.0
176
     1
173
     0
176
     1
  0
VISUALSTYLE
  5
38
102
{ACAD_REACTORS
330
2A
102
}
330
2A
100
AcDbVisualStyle
  2
Linepattern
 70
    14
177
     2
291
     1
 71
     2
176
     1
 72
     2
176
     1
 73
     0
176
     1
 90
        0
176
     1
 40
-0.6
176
     1
 41
-30.0
176
     1
 62
     5
 63
     7
421
 16777215
176
     1
 74
     1
176
     1
 91
        4
176
     1
 64
     7
176
     1
 65
   257
176
     1
 75
     7
176
     1
175
     7
176
     1
 42
1.0
176
     1
 92
        8
176
     1
 66
     7
176
     1
 43
1.0
176
     1
 76
     1
176
     1
 77
     6
176
     1
 78
     2
176
     1
 67
     7
176
     1
 79
     5
176
     1
170
     0
176
     1
171
     0
176
     1
290
     0
176
     1
 93
        1
176
     1
 44
0.0
176
     1
173
     0
176
     1
  0
VISUALSTYLE
  5
33
102
{ACAD_REACTORS
330
2A
102
}
330
2A
100
AcDbVisualStyle
  2
Realistic
 70
     8
177
     2
291
     0
 71
     2
176
     1
 72
     2
176
     1
 73
     0
176
     1
 90
        0
176
     1
 40
-0.6
176
     1
 41
-30.0
176
     1
 62
     5
 63
     7
421
 16777215
176
     1
 74
     1
176
     1
 91
        0
176
     1
 64
     7
176
     1
 65
   257
176
     1
 75
     1
176
     1
175
     1
176
     1
 42
1.0
176
     1
 92
        8
176
     1
 66
     8
424
  7895160
176
     1
 43
1.0
176
     1
 76
     1
176
     1
 77
     6
176
     1
 78
     2
176
     1
 67
     7
176
     1
 79
     5
176
     1
170
     0
176
     1
171
     0
176
     1
290
     0
176
     1
 93
       13
176
     1
 44
0.0
176
     1
173
     0
176
     1
  0
VISUALSTYLE
  5
37
102
{ACAD_REACTORS
330
2A
102
}
330
2A
100
AcDbVisualStyle
  2
Thicken
 70
    13
177
     2
291
     1
 71
     2
176
     1
 72
     2
176
     1
 73
     0
176
     1
 90
        0
176
     1
 40
-0.6
176
     1
 41
-30.0
176
     1
 62
     5
 63
     7
421
 16777215
176
     1
 74
     1
176
     1
 91
        4
176
     1
 64
     7
176
     1
 65
   257
176
     1
 75
     1
176
     1
175
     1
176
     1
 42
1.0
176
     1
 92
       12
176
     1
 66
     7
176
     1
 43
1.0
176
     1
 76
     1
176
     1
 77
     6
176
     1
 78
     2
176
     1
 67
     7
176
     1
 79
     5
176
     1
170
     0
176
     1
171
     0
176
     1
290
     0
176
     1
 93
        1
176
     1
 44
0.0
176
     1
173
     0
176
     1
  0
ENDSEC
  0
EOF
