  0
SECTION
  2
HEADER
  9
$ACADVER
  1
AC1012
  9
$DWGCODEPAGE
  3
dos932
  9
$INSBASE
 10
0.0
 20
0.0
 30
0.0
  9
$EXTMIN
 10
0.4894416100455601
 20
0.4902653820932415
 30
-0.0000000349181948
  9
$EXTMAX
 10
144.0134587653603
 20
99.50454747945139
 30
0.0000000814935747
  9
$LIMMIN
 10
0.0
 20
0.0
  9
$LIMMAX
 10
297.0
 20
210.0
  9
$ORTHOMODE
 70
     0
  9
$REGENMODE
 70
     1
  9
$FILLMODE
 70
     1
  9
$QTEXTMODE
 70
     0
  9
$MIRRTEXT
 70
     1
  9
$DRAGMODE
 70
     2
  9
$LTSCALE
 40
15.0
  9
$OSMODE
 70
    37
  9
$ATTMODE
 70
     1
  9
$TEXTSIZE
 40
0.2
  9
$TRACEWID
 40
0.05
  9
$TEXTSTYLE
  7
GOTHIC
  9
$CLAYER
  8
CSLAYER1
  9
$CELTYPE
  6
BYLAYER
  9
$CECOLOR
 62
   256
  9
$CELTSCALE
 40
1.0
  9
$DELOBJ
 70
     1
  9
$DISPSILH
 70
     0
  9
$DIMSCALE
 40
1.0
  9
$DIMASZ
 40
0.18
  9
$DIMEXO
 40
0.0625
  9
$DIMDLI
 40
0.38
  9
$DIMRND
 40
0.0
  9
$DIMDLE
 40
0.0
  9
$DIMEXE
 40
0.18
  9
$DIMTP
 40
0.0
  9
$DIMTM
 40
0.0
  9
$DIMTXT
 40
0.18
  9
$DIMCEN
 40
0.09
  9
$DIMTSZ
 40
0.0
  9
$DIMTOL
 70
     0
  9
$DIMLIM
 70
     0
  9
$DIMTIH
 70
     1
  9
$DIMTOH
 70
     1
  9
$DIMSE1
 70
     0
  9
$DIMSE2
 70
     0
  9
$DIMTAD
 70
     0
  9
$DIMZIN
 70
     0
  9
$DIMBLK
  1

  9
$DIMASO
 70
     1
  9
$DIMSHO
 70
     1
  9
$DIMPOST
  1

  9
$DIMAPOST
  1

  9
$DIMALT
 70
     0
  9
$DIMALTD
 70
     2
  9
$DIMALTF
 40
25.4
  9
$DIMLFAC
 40
1.0
  9
$DIMTOFL
 70
     0
  9
$DIMTVP
 40
0.0
  9
$DIMTIX
 70
     0
  9
$DIMSOXD
 70
     0
  9
$DIMSAH
 70
     0
  9
$DIMBLK1
  1

  9
$DIMBLK2
  1

  9
$DIMSTYLE
  2
STANDARD
  9
$DIMCLRD
 70
     0
  9
$DIMCLRE
 70
     0
  9
$DIMCLRT
 70
     0
  9
$DIMTFAC
 40
1.0
  9
$DIMGAP
 40
0.09
  9
$DIMJUST
 70
     0
  9
$DIMSD1
 70
     0
  9
$DIMSD2
 70
     0
  9
$DIMTOLJ
 70
     1
  9
$DIMTZIN
 70
     0
  9
$DIMALTZ
 70
     0
  9
$DIMALTTZ
 70
     0
  9
$DIMFIT
 70
     3
  9
$DIMUPT
 70
     0
  9
$DIMUNIT
 70
     2
  9
$DIMDEC
 70
     4
  9
$DIMTDEC
 70
     4
  9
$DIMALTU
 70
     2
  9
$DIMALTTD
 70
     2
  9
$DIMTXSTY
  7
STANDARD
  9
$DIMAUNIT
 70
     0
  9
$LUNITS
 70
     2
  9
$LUPREC
 70
     4
  9
$SKETCHINC
 40
0.1
  9
$FILLETRAD
 40
0.0
  9
$AUNITS
 70
     0
  9
$AUPREC
 70
     0
  9
$MENU
  1
ACAD
  9
$ELEVATION
 40
0.0
  9
$PELEVATION
 40
0.0
  9
$THICKNESS
 40
0.0
  9
$LIMCHECK
 70
     0
  9
$BLIPMODE
 70
     1
  9
$CHAMFERA
 40
0.0
  9
$CHAMFERB
 40
0.0
  9
$CHAMFERC
 40
0.0
  9
$CHAMFERD
 40
0.0
  9
$SKPOLY
 70
     0
  9
$TDCREATE
 40
2453453.000000000
  9
$TDUPDATE
 40
2453575.517044166
  9
$TDINDWG
 40
0.0203850810
  9
$TDUSRTIMER
 40
0.0203848495
  9
$USRTIMER
 70
     1
  9
$ANGBASE
 50
0.0
  9
$ANGDIR
 70
     0
  9
$PDMODE
 70
     0
  9
$PDSIZE
 40
0.0
  9
$PLINEWID
 40
0.0
  9
$COORDS
 70
     0
  9
$SPLFRAME
 70
     0
  9
$SPLINETYPE
 70
     6
  9
$SPLINESEGS
 70
     8
  9
$ATTDIA
 70
     0
  9
$ATTREQ
 70
     1
  9
$HANDLING
 70
 22529
  9
$HANDSEED
  5
238
  9
$SURFTAB1
 70
     6
  9
$SURFTAB2
 70
     6
  9
$SURFTYPE
 70
     6
  9
$SURFU
 70
     6
  9
$SURFV
 70
     6
  9
$UCSNAME
  2

  9
$UCSORG
 10
0.0
 20
0.0
 30
0.0
  9
$UCSXDIR
 10
1.0
 20
0.0
 30
0.0
  9
$UCSYDIR
 10
0.0
 20
1.0
 30
0.0
  9
$PUCSNAME
  2

  9
$PUCSORG
 10
0.0
 20
0.0
 30
0.0
  9
$PUCSXDIR
 10
1.0
 20
0.0
 30
0.0
  9
$PUCSYDIR
 10
0.0
 20
1.0
 30
0.0
  9
$USERI1
 70
     0
  9
$USERI2
 70
     0
  9
$USERI3
 70
     0
  9
$USERI4
 70
     0
  9
$USERI5
 70
     0
  9
$USERR1
 40
0.0
  9
$USERR2
 40
0.0
  9
$USERR3
 40
0.0
  9
$USERR4
 40
0.0
  9
$USERR5
 40
0.0
  9
$WORLDVIEW
 70
     1
  9
$SHADEDGE
 70
     3
  9
$SHADEDIF
 70
    70
  9
$TILEMODE
 70
     1
  9
$MAXACTVP
 70
    64
  9
$PINSBASE
 10
0.0
 20
0.0
 30
0.0
  9
$PLIMCHECK
 70
     0
  9
$PEXTMIN
 10
1.000000000000000E+20
 20
1.000000000000000E+20
 30
1.000000000000000E+20
  9
$PEXTMAX
 10
-1.000000000000000E+20
 20
-1.000000000000000E+20
 30
-1.000000000000000E+20
  9
$PLIMMIN
 10
0.0
 20
0.0
  9
$PLIMMAX
 10
12.0
 20
9.0
  9
$UNITMODE
 70
     0
  9
$VISRETAIN
 70
     1
  9
$PLINEGEN
 70
     0
  9
$PSLTSCALE
 70
     1
  9
$TREEDEPTH
 70
  3020
  9
$PICKSTYLE
 70
     3
  9
$CMLSTYLE
  2
STANDARD
  9
$CMLJUST
 70
     0
  9
$CMLSCALE
 40
1.0
  9
$SAVEIMAGES
 70
     1
  0
ENDSEC
  0
SECTION
  2
CLASSES
  0
CLASS
  1
ACDBDICTIONARYWDFLT
  2
AcDbDictionaryWithDefault
  3
AutoCAD 2000
 90
    32768
280
     0
281
     0
  0
CLASS
  1
ACDBPLACEHOLDER
  2
AcDbPlaceHolder
  3
AutoCAD 2000
 90
    32768
280
     0
281
     0
  0
CLASS
  1
LAYOUT
  2
AcDbLayout
  3
AutoCAD 2000
 90
    32768
280
     0
281
     0
  0
CLASS
  1
DICTIONARYVAR
  2
AcDbDictionaryVar
  3
AutoCAD 2000
 90
    32768
280
     0
281
     0
  0
CLASS
  1
LONG_TRANSACTION
  2
AcDbLongTransaction
  3
AutoCAD 2000
 90
    32768
280
     0
281
     0
  0
CLASS
  1
LWPOLYLINE
  2
AcDbPolyline
  3
AutoCAD 2000
 90
    32768
280
     0
281
     1
  0
CLASS
  1
HATCH
  2
AcDbHatch
  3
AutoCAD 2000
 90
    32768
280
     0
281
     1
  0
CLASS
  1
XRECORD
  2
AcDbXrecord
  3
AutoCAD 2000
 90
    32768
280
     0
281
     0
  0
CLASS
  1
LONG_TRANSACTION
  2
AcDbLongTransaction
  3
AutoCAD 2000
 90
    32768
280
     0
281
     0
  0
CLASS
  1
LWPOLYLINE
  2
AcDbPolyline
  3
AutoCAD 2000
 90
    32768
280
     0
281
     1
  0
CLASS
  1
HATCH
  2
AcDbHatch
  3
AutoCAD 2000
 90
    32768
280
     0
281
     1
  0
CLASS
  1
XRECORD
  2
AcDbXrecord
  3
AutoCAD 2000
 90
    32768
280
     0
281
     0
  0
CLASS
  1
LONG_TRANSACTION
  2
AcDbLongTransaction
  3
AutoCAD 2000
 90
    32768
280
     0
281
     0
  0
CLASS
  1
LWPOLYLINE
  2
AcDbPolyline
  3
AutoCAD 2000
 90
    32768
280
     0
281
     1
  0
CLASS
  1
HATCH
  2
AcDbHatch
  3
AutoCAD 2000
 90
    32768
280
     0
281
     1
  0
CLASS
  1
XRECORD
  2
AcDbXrecord
  3
AutoCAD 2000
 90
    32768
280
     0
281
     0
  0
ENDSEC
  0
SECTION
  2
TABLES
  0
TABLE
  2
VPORT
  5
8
330
0
100
AcDbSymbolTable
 70
     2
  0
VPORT
  5
235
330
8
100
AcDbSymbolTableRecord
100
AcDbViewportTableRecord
  2
*ACTIVE
 70
     0
 10
0.0
 20
0.0
 11
1.0
 21
1.0
 12
72.25145018770297
 22
49.99740643077231
 13
0.0
 23
0.0
 14
1.0
 24
1.0
 15
0.0
 25
0.0
 16
0.0
 26
0.0
 36
1.0
 17
0.0
 27
0.0
 37
0.0
 40
99.73264448258687
 41
1.458837772397094
 42
50.0
 43
0.0
 44
0.0
 50
0.0
 51
0.0
 71
     0
 72
   100
 73
     1
 74
     1
 75
     0
 76
     0
 77
     0
 78
     0
  0
ENDTAB
  0
TABLE
  2
LTYPE
  5
5
330
0
100
AcDbSymbolTable
 70
     4
  0
LTYPE
  5
13
330
5
100
AcDbSymbolTableRecord
100
AcDbLinetypeTableRecord
  2
BYBLOCK
 70
     0
  3

 72
    65
 73
     0
 40
0.0
  0
LTYPE
  5
14
330
5
100
AcDbSymbolTableRecord
100
AcDbLinetypeTableRecord
  2
BYLAYER
 70
     0
  3

 72
    65
 73
     0
 40
0.0
  0
LTYPE
  5
15
330
5
100
AcDbSymbolTableRecord
100
AcDbLinetypeTableRecord
  2
CONTINUOUS
 70
     0
  3
Solid line
 72
    65
 73
     0
 40
0.0
  0
LTYPE
  5
23
330
5
100
AcDbSymbolTableRecord
100
AcDbLinetypeTableRecord
  2
DASHED
 70
     0
  3
__ __ __ __ __ __ __ __ __ __ __ __ __ __ __
 72
    65
 73
     2
 40
0.75
 49
0.5
 74
     0
 49
-0.25
 74
     0
  0
LTYPE
  5
25
330
5
100
AcDbSymbolTableRecord
100
AcDbLinetypeTableRecord
  2
DOT
 70
     0
  3
...............................................
 72
    65
 73
     2
 40
0.25
 49
0.0
 74
     0
 49
-0.25
 74
     0
  0
LTYPE
  5
28
330
5
100
AcDbSymbolTableRecord
100
AcDbLinetypeTableRecord
  2
CENTER
 70
     0
  3
____ _ ____ _ ____ _ ____ _ ____ _ ____ _ ____ 
 72
    65
 73
     4
 40
2.0
 49
1.25
 74
     0
 49
-0.25
 74
     0
 49
0.25
 74
     0
 49
-0.25
 74
     0
  0
ENDTAB
  0
TABLE
  2
LAYER
  5
2
330
0
100
AcDbSymbolTable
 70
     3
  0
LAYER
  5
10
330
2
100
AcDbSymbolTableRecord
100
AcDbLayerTableRecord
  2
0
 70
     0
 62
     7
  6
CONTINUOUS
  0
LAYER
  5
22
330
2
100
AcDbSymbolTableRecord
100
AcDbLayerTableRecord
  2
CSLAYER1
 70
     0
 62
     7
  6
CONTINUOUS
  0
LAYER
  5
187
330
2
100
AcDbSymbolTableRecord
100
AcDbLayerTableRecord
  2
DEFPOINTS
 70
     0
 62
     7
  6
CONTINUOUS
  0
ENDTAB
  0
TABLE
  2
STYLE
  5
3
330
0
100
AcDbSymbolTable
 70
     3
  0
STYLE
  5
11
330
3
100
AcDbSymbolTableRecord
100
AcDbTextStyleTableRecord
  2
STANDARD
 70
     0
 40
0.0
 41
1.0
 50
0.0
 71
     0
 42
0.2
  3
txt
  4
extfont.shx
  0
STYLE
  5
3A
330
3
100
AcDbSymbolTableRecord
100
AcDbTextStyleTableRecord
  2
FX_FONT
 70
     0
 40
1.0
 41
1.0
 50
0.0
 71
     0
 42
1.0
  3
monotxt
  4
bigfont
  0
STYLE
  5
17F
330
3
100
AcDbSymbolTableRecord
100
AcDbTextStyleTableRecord
  2
GOTHIC
 70
     0
 40
0.0
 41
1.0
 50
0.0
 71
     0
 42
0.2
  3
txt.shx
  4
extfont.shx
  0
ENDTAB
  0
TABLE
  2
VIEW
  5
6
330
0
100
AcDbSymbolTable
 70
     0
  0
ENDTAB
  0
TABLE
  2
UCS
  5
7
330
0
100
AcDbSymbolTable
 70
     0
  0
ENDTAB
  0
TABLE
  2
APPID
  5
9
330
0
100
AcDbSymbolTable
 70
     1
  0
APPID
  5
12
330
9
100
AcDbSymbolTableRecord
100
AcDbRegAppTableRecord
  2
ACAD
 70
     0
  0
ENDTAB
  0
TABLE
  2
DIMSTYLE
  5
A
330
0
100
AcDbSymbolTable
 70
     1
  0
DIMSTYLE
105
17C
330
A
100
AcDbSymbolTableRecord
100
AcDbDimStyleTableRecord
  2
STANDARD
 70
     0
  3

  4

  5

  6

  7

 40
1.0
 41
0.18
 42
0.0625
 43
0.38
 44
0.18
 45
0.0
 46
0.0
 47
0.0
 48
0.0
140
0.18
141
0.09
142
0.0
143
25.4
144
1.0
145
0.0
146
1.0
147
0.09
 71
     0
 72
     0
 73
     1
 74
     1
 75
     0
 76
     0
 77
     0
 78
     0
170
     0
171
     2
172
     0
173
     0
174
     0
175
     0
176
     0
177
     0
178
     0
270
     2
271
     4
272
     4
273
     2
274
     2
340
11
275
     0
280
     0
281
     0
282
     0
283
     1
284
     0
285
     0
286
     0
287
     3
288
     0
  0
ENDTAB
  0
TABLE
  2
BLOCK_RECORD
  5
1
330
0
100
AcDbSymbolTable
 70
    21
  0
BLOCK_RECORD
  5
1E
102
{ACAD_XDICTIONARY
360
185
102
}
330
1
100
AcDbSymbolTableRecord
100
AcDbBlockTableRecord
  2
*MODEL_SPACE
  0
BLOCK_RECORD
  5
1A
102
{ACAD_XDICTIONARY
360
183
102
}
330
1
100
AcDbSymbolTableRecord
100
AcDbBlockTableRecord
  2
*PAPER_SPACE
  0
BLOCK_RECORD
  5
3F
330
1
100
AcDbSymbolTableRecord
100
AcDbBlockTableRecord
  2
FXDIM0000
  0
BLOCK_RECORD
  5
47
330
1
100
AcDbSymbolTableRecord
100
AcDbBlockTableRecord
  2
FXDIM0001
  0
BLOCK_RECORD
  5
51
330
1
100
AcDbSymbolTableRecord
100
AcDbBlockTableRecord
  2
FXDIM0002
  0
BLOCK_RECORD
  5
5B
330
1
100
AcDbSymbolTableRecord
100
AcDbBlockTableRecord
  2
*D3
  0
BLOCK_RECORD
  5
68
330
1
100
AcDbSymbolTableRecord
100
AcDbBlockTableRecord
  2
*D4
  0
BLOCK_RECORD
  5
73
330
1
100
AcDbSymbolTableRecord
100
AcDbBlockTableRecord
  2
*D5
  0
BLOCK_RECORD
  5
7E
330
1
100
AcDbSymbolTableRecord
100
AcDbBlockTableRecord
  2
*D6
  0
BLOCK_RECORD
  5
8B
330
1
100
AcDbSymbolTableRecord
100
AcDbBlockTableRecord
  2
*D7
  0
BLOCK_RECORD
  5
92
330
1
100
AcDbSymbolTableRecord
100
AcDbBlockTableRecord
  2
*D8
  0
BLOCK_RECORD
  5
9C
330
1
100
AcDbSymbolTableRecord
100
AcDbBlockTableRecord
  2
*D9
  0
BLOCK_RECORD
  5
A6
330
1
100
AcDbSymbolTableRecord
100
AcDbBlockTableRecord
  2
*D10
  0
BLOCK_RECORD
  5
B0
330
1
100
AcDbSymbolTableRecord
100
AcDbBlockTableRecord
  2
*D11
  0
BLOCK_RECORD
  5
BB
330
1
100
AcDbSymbolTableRecord
100
AcDbBlockTableRecord
  2
*D12
  0
BLOCK_RECORD
  5
C5
330
1
100
AcDbSymbolTableRecord
100
AcDbBlockTableRecord
  2
*D13
  0
BLOCK_RECORD
  5
D2
330
1
100
AcDbSymbolTableRecord
100
AcDbBlockTableRecord
  2
*D14
  0
BLOCK_RECORD
  5
DD
330
1
100
AcDbSymbolTableRecord
100
AcDbBlockTableRecord
  2
*D15
  0
BLOCK_RECORD
  5
E8
330
1
100
AcDbSymbolTableRecord
100
AcDbBlockTableRecord
  2
*D16
  0
BLOCK_RECORD
  5
188
330
1
100
AcDbSymbolTableRecord
100
AcDbBlockTableRecord
  2
*D17
  0
BLOCK_RECORD
  5
197
330
1
100
AcDbSymbolTableRecord
100
AcDbBlockTableRecord
  2
*D18
  0
BLOCK_RECORD
  5
1A6
330
1
100
AcDbSymbolTableRecord
100
AcDbBlockTableRecord
  2
*D19
  0
BLOCK_RECORD
  5
1B5
330
1
100
AcDbSymbolTableRecord
100
AcDbBlockTableRecord
  2
*D20
  0
ENDTAB
  0
ENDSEC
  0
SECTION
  2
BLOCKS
  0
BLOCK
  5
1F
330
1E
100
AcDbEntity
  8
0
100
AcDbBlockBegin
  2
*MODEL_SPACE
 70
     0
 10
0.0
 20
0.0
 30
0.0
  3
*MODEL_SPACE
  1

  0
ENDBLK
  5
20
330
1E
100
AcDbEntity
  8
0
100
AcDbBlockEnd
  0
BLOCK
  5
1B
330
1A
100
AcDbEntity
 67
     1
  8
0
100
AcDbBlockBegin
  2
*PAPER_SPACE
 70
     0
 10
0.0
 20
0.0
 30
0.0
  3
*PAPER_SPACE
  1

  0
ENDBLK
  5
1C
330
1A
100
AcDbEntity
 67
     1
  8
0
100
AcDbBlockEnd
  0
BLOCK
  5
40
330
3F
100
AcDbEntity
  8
0
100
AcDbBlockBegin
  2
FXDIM0000
 70
     0
 10
0.0
 20
0.0
 30
0.0
  3
FXDIM0000
  1

  0
LINE
  5
41
330
3F
100
AcDbEntity
  8
CSLAYER1
  6
CONTINUOUS
 62
     4
100
AcDbLine
 10
141.9388419999999
 20
126.8397039999999
 30
0.0
 11
135.2960779999999
 21
102.0485709999999
 31
0.0
  0
LINE
  5
42
330
3F
100
AcDbEntity
  8
CSLAYER1
  6
CONTINUOUS
 62
     4
100
AcDbLine
 10
141.9388419999999
 20
126.8397039999999
 30
0.0
 11
141.9388419999999
 21
123.8397039999999
 31
0.0
  0
LINE
  5
43
330
3F
100
AcDbEntity
  8
CSLAYER1
  6
CONTINUOUS
 62
     4
100
AcDbLine
 10
141.9388419999999
 20
126.8397039999999
 30
0.0
 11
140.4388419999999
 21
124.241628
 31
0.0
  0
LINE
  5
44
330
3F
100
AcDbEntity
  8
CSLAYER1
  6
CONTINUOUS
 62
     4
100
AcDbLine
 10
135.2960779999999
 20
102.0485709999999
 30
0.0
 11
121.296078
 21
102.0485709999999
 31
0.0
  0
TEXT
  5
45
330
3F
100
AcDbEntity
  8
CSLAYER1
 62
     4
100
AcDbText
 10
122.0908969999999
 20
103.0485759999999
 30
0.0
 40
3.0
  1
%%c4.1
 41
1.142857142857132
 51
15.0
  7
FX_FONT
 72
     5
 11
134.0908969999997
 21
103.0485759999999
 31
0.0
100
AcDbText
  0
ENDBLK
  5
46
330
3F
100
AcDbEntity
  8
0
100
AcDbBlockEnd
  0
BLOCK
  5
48
330
47
100
AcDbEntity
  8
0
100
AcDbBlockBegin
  2
FXDIM0001
 70
     0
 10
0.0
 20
0.0
 30
0.0
  3
FXDIM0001
  1

  0
LINE
  5
49
330
47
100
AcDbEntity
  8
CSLAYER1
  6
CONTINUOUS
 62
     4
100
AcDbLine
 10
148.726061
 20
77.8
 30
0.0
 11
150.726061
 21
81.264102
 31
0.0
  0
LINE
  5
4A
330
47
100
AcDbEntity
  8
CSLAYER1
  6
CONTINUOUS
 62
     4
100
AcDbLine
 10
146.726061
 20
81.264102
 30
0.0
 11
158.726061
 21
81.264102
 31
0.0
  0
LINE
  5
4B
330
47
100
AcDbEntity
  8
CSLAYER1
  6
CONTINUOUS
 62
     4
100
AcDbLine
 10
146.726061
 20
81.264102
 30
0.0
 11
148.726061
 21
77.8
 31
0.0
  0
LINE
  5
4C
330
47
100
AcDbEntity
  8
CSLAYER1
  6
CONTINUOUS
 62
     4
100
AcDbLine
 10
152.726061
 20
77.8
 30
0.0
 11
154.726061
 21
81.264102
 31
0.0
  0
LINE
  5
4D
330
47
100
AcDbEntity
  8
CSLAYER1
  6
CONTINUOUS
 62
     4
100
AcDbLine
 10
150.726061
 20
81.264102
 30
0.0
 11
152.726061
 21
77.8
 31
0.0
  0
LINE
  5
4E
330
47
100
AcDbEntity
  8
CSLAYER1
  6
CONTINUOUS
 62
     4
100
AcDbLine
 10
156.726061
 20
77.8
 30
0.0
 11
158.726061
 21
81.264102
 31
0.0
  0
LINE
  5
4F
330
47
100
AcDbEntity
  8
CSLAYER1
  6
CONTINUOUS
 62
     4
100
AcDbLine
 10
154.726061
 20
81.264102
 30
0.0
 11
156.726061
 21
77.8
 31
0.0
  0
ENDBLK
  5
50
330
47
100
AcDbEntity
  8
0
100
AcDbBlockEnd
  0
BLOCK
  5
52
330
51
100
AcDbEntity
  8
0
100
AcDbBlockBegin
  2
FXDIM0002
 70
     0
 10
0.0
 20
0.0
 30
0.0
  3
FXDIM0002
  1

  0
LINE
  5
53
330
51
100
AcDbEntity
  8
CSLAYER1
  6
CONTINUOUS
 62
     4
100
AcDbLine
 10
149.007273
 20
63.79999999999999
 30
0.0
 11
147.007273
 21
60.335898
 31
0.0
  0
LINE
  5
54
330
51
100
AcDbEntity
  8
CSLAYER1
  6
CONTINUOUS
 62
     4
100
AcDbLine
 10
147.007273
 20
60.335898
 30
0.0
 11
159.0072729999999
 21
60.335898
 31
0.0
  0
LINE
  5
55
330
51
100
AcDbEntity
  8
CSLAYER1
  6
CONTINUOUS
 62
     4
100
AcDbLine
 10
151.007273
 20
60.335898
 30
0.0
 11
149.007273
 21
63.79999999999999
 31
0.0
  0
LINE
  5
56
330
51
100
AcDbEntity
  8
CSLAYER1
  6
CONTINUOUS
 62
     4
100
AcDbLine
 10
153.007273
 20
63.79999999999999
 30
0.0
 11
151.007273
 21
60.335898
 31
0.0
  0
LINE
  5
57
330
51
100
AcDbEntity
  8
CSLAYER1
  6
CONTINUOUS
 62
     4
100
AcDbLine
 10
155.007273
 20
60.335898
 30
0.0
 11
153.007273
 21
63.79999999999999
 31
0.0
  0
LINE
  5
58
330
51
100
AcDbEntity
  8
CSLAYER1
  6
CONTINUOUS
 62
     4
100
AcDbLine
 10
157.0072729999999
 20
63.79999999999999
 30
0.0
 11
155.007273
 21
60.335898
 31
0.0
  0
LINE
  5
59
330
51
100
AcDbEntity
  8
CSLAYER1
  6
CONTINUOUS
 62
     4
100
AcDbLine
 10
159.0072729999999
 20
60.335898
 30
0.0
 11
157.0072729999999
 21
63.79999999999999
 31
0.0
  0
ENDBLK
  5
5A
330
51
100
AcDbEntity
  8
0
100
AcDbBlockEnd
  0
BLOCK
  5
5C
330
5B
100
AcDbEntity
  8
0
100
AcDbBlockBegin
  2
*D3
 70
     1
 10
0.0
 20
0.0
 30
0.0
  3
*D3
  1

  0
TEXT
  5
5D
330
5B
100
AcDbEntity
  8
CSLAYER1
 62
     4
100
AcDbText
 10
76.15393799999998
 20
70.206367
 30
0.0
 40
3.0
  1
7 
 50
90.0
 41
1.25
 51
15.0
  7
FX_FONT
 72
     5
 11
76.15393799999998
 21
76.206367
 31
0.0
100
AcDbText
  0
TEXT
  5
5E
330
5B
100
AcDbEntity
  8
CSLAYER1
 62
     4
100
AcDbText
 10
74.653938
 20
76.206367
 30
0.0
 40
1.5
  1
  0
 50
90.0
 41
1.607142857142852
 51
15.0
  7
FX_FONT
 72
     5
 11
74.653938
 21
80.70636699999999
 31
0.0
100
AcDbText
  0
TEXT
  5
5F
330
5B
100
AcDbEntity
  8
CSLAYER1
 62
     4
100
AcDbText
 10
76.15393799999998
 20
76.206367
 30
0.0
 40
1.5
  1
-0.15
 50
90.0
 41
1.071428571428571
 51
15.0
  7
FX_FONT
 72
     5
 11
76.15393799999998
 21
83.706367
 31
0.0
100
AcDbText
  0
LINE
  5
60
330
5B
100
AcDbEntity
  8
CSLAYER1
  6
CONTINUOUS
 62
     4
100
AcDbLine
 10
93.0
 20
63.79999999999999
 30
0.0
 11
76.435152
 21
63.79999999999999
 31
0.0
  0
LINE
  5
61
330
5B
100
AcDbEntity
  8
CSLAYER1
  6
CONTINUOUS
 62
     4
100
AcDbLine
 10
121.0
 20
77.8
 30
0.0
 11
76.435152
 21
77.8
 31
0.0
  0
LINE
  5
62
330
5B
100
AcDbEntity
  8
CSLAYER1
  6
CONTINUOUS
 62
     4
100
AcDbLine
 10
78.435152
 20
63.79999999999999
 30
0.0
 11
78.435152
 21
77.8
 31
0.0
  0
LINE
  5
63
330
5B
100
AcDbEntity
  8
CSLAYER1
  6
CONTINUOUS
 62
     4
100
AcDbLine
 10
78.435152
 20
63.79999999999999
 30
0.0
 11
77.65869399999998
 21
66.697777
 31
0.0
  0
LINE
  5
64
330
5B
100
AcDbEntity
  8
CSLAYER1
  6
CONTINUOUS
 62
     4
100
AcDbLine
 10
78.435152
 20
63.79999999999999
 30
0.0
 11
79.211609
 21
66.697777
 31
0.0
  0
LINE
  5
65
330
5B
100
AcDbEntity
  8
CSLAYER1
  6
CONTINUOUS
 62
     4
100
AcDbLine
 10
78.435152
 20
77.8
 30
0.0
 11
77.65869399999998
 21
74.90222299999998
 31
0.0
  0
LINE
  5
66
330
5B
100
AcDbEntity
  8
CSLAYER1
  6
CONTINUOUS
 62
     4
100
AcDbLine
 10
78.435152
 20
77.8
 30
0.0
 11
79.211609
 21
74.90222299999998
 31
0.0
  0
ENDBLK
  5
67
330
5B
100
AcDbEntity
  8
0
100
AcDbBlockEnd
  0
BLOCK
  5
69
330
68
100
AcDbEntity
  8
0
100
AcDbBlockBegin
  2
*D4
 70
     1
 10
0.0
 20
0.0
 30
0.0
  3
*D4
  1

  0
TEXT
  5
6A
330
68
100
AcDbEntity
  8
CSLAYER1
 62
     4
100
AcDbText
 10
130.0
 20
87.420609
 30
0.0
 40
3.0
  1
10
 41
1.2
 51
15.0
  7
FX_FONT
 72
     5
 11
136.0
 21
87.420609
 31
0.0
100
AcDbText
  0
LINE
  5
6B
330
68
100
AcDbEntity
  8
CSLAYER1
  6
CONTINUOUS
 62
     4
100
AcDbLine
 10
123.0
 20
79.8
 30
0.0
 11
123.0
 21
88.42060600000001
 31
0.0
  0
LINE
  5
6C
330
68
100
AcDbEntity
  8
CSLAYER1
  6
CONTINUOUS
 62
     4
100
AcDbLine
 10
143.0
 20
85.77428600000002
 30
0.0
 11
143.0
 21
88.42060600000001
 31
0.0
  0
LINE
  5
6D
330
68
100
AcDbEntity
  8
CSLAYER1
  6
CONTINUOUS
 62
     4
100
AcDbLine
 10
123.0
 20
86.420606
 30
0.0
 11
143.0
 21
86.420606
 31
0.0
  0
LINE
  5
6E
330
68
100
AcDbEntity
  8
CSLAYER1
  6
CONTINUOUS
 62
     4
100
AcDbLine
 10
123.0
 20
86.420606
 30
0.0
 11
125.8977769999999
 21
87.197063
 31
0.0
  0
LINE
  5
6F
330
68
100
AcDbEntity
  8
CSLAYER1
  6
CONTINUOUS
 62
     4
100
AcDbLine
 10
123.0
 20
86.420606
 30
0.0
 11
125.8977769999999
 21
85.644149
 31
0.0
  0
LINE
  5
70
330
68
100
AcDbEntity
  8
CSLAYER1
  6
CONTINUOUS
 62
     4
100
AcDbLine
 10
143.0
 20
86.420606
 30
0.0
 11
140.102223
 21
87.197063
 31
0.0
  0
LINE
  5
71
330
68
100
AcDbEntity
  8
CSLAYER1
  6
CONTINUOUS
 62
     4
100
AcDbLine
 10
143.0
 20
86.420606
 30
0.0
 11
140.102223
 21
85.644149
 31
0.0
  0
ENDBLK
  5
72
330
68
100
AcDbEntity
  8
0
100
AcDbBlockEnd
  0
BLOCK
  5
74
330
73
100
AcDbEntity
  8
0
100
AcDbBlockBegin
  2
*D5
 70
     1
 10
0.0
 20
0.0
 30
0.0
  3
*D5
  1

  0
TEXT
  5
75
330
73
100
AcDbEntity
  8
CSLAYER1
 62
     4
100
AcDbText
 10
78.975006
 20
120.300003
 30
0.0
 40
3.0
  1
14.5~16
 50
90.0
 41
1.05
 51
15.0
  7
FX_FONT
 72
     5
 11
78.975006
 21
141.300003
 31
0.0
100
AcDbText
  0
LINE
  5
76
330
73
100
AcDbEntity
  8
CSLAYER1
  6
CONTINUOUS
 62
     4
100
AcDbLine
 10
126.630343
 20
115.7999999999999
 30
0.0
 11
77.97501
 21
115.7999999999999
 31
0.0
  0
LINE
  5
77
330
73
100
AcDbEntity
  8
CSLAYER1
  6
CONTINUOUS
 62
     4
100
AcDbLine
 10
126.630343
 20
145.8
 30
0.0
 11
77.97501
 21
145.8
 31
0.0
  0
LINE
  5
78
330
73
100
AcDbEntity
  8
CSLAYER1
  6
CONTINUOUS
 62
     4
100
AcDbLine
 10
79.97500999999998
 20
115.7999999999999
 30
0.0
 11
79.97500999999998
 21
145.8
 31
0.0
  0
LINE
  5
79
330
73
100
AcDbEntity
  8
CSLAYER1
  6
CONTINUOUS
 62
     4
100
AcDbLine
 10
79.97500999999998
 20
115.7999999999999
 30
0.0
 11
79.198552
 21
118.697777
 31
0.0
  0
LINE
  5
7A
330
73
100
AcDbEntity
  8
CSLAYER1
  6
CONTINUOUS
 62
     4
100
AcDbLine
 10
79.97500999999998
 20
115.7999999999999
 30
0.0
 11
80.75146700000003
 21
118.697777
 31
0.0
  0
LINE
  5
7B
330
73
100
AcDbEntity
  8
CSLAYER1
  6
CONTINUOUS
 62
     4
100
AcDbLine
 10
79.97500999999998
 20
145.8
 30
0.0
 11
79.198552
 21
142.9022229999999
 31
0.0
  0
LINE
  5
7C
330
73
100
AcDbEntity
  8
CSLAYER1
  6
CONTINUOUS
 62
     4
100
AcDbLine
 10
79.97500999999998
 20
145.8
 30
0.0
 11
80.75146700000003
 21
142.9022229999999
 31
0.0
  0
ENDBLK
  5
7D
330
73
100
AcDbEntity
  8
0
100
AcDbBlockEnd
  0
BLOCK
  5
7F
330
7E
100
AcDbEntity
  8
0
100
AcDbBlockBegin
  2
*D6
 70
     1
 10
0.0
 20
0.0
 30
0.0
  3
*D6
  1

  0
TEXT
  5
80
330
7E
100
AcDbEntity
  8
CSLAYER1
 62
     4
100
AcDbText
 10
84.975006
 20
126.300003
 30
0.0
 40
3.0
  1
(2)
 50
90.0
 41
1.285714285714285
 51
15.0
  7
FX_FONT
 72
     5
 11
84.975006
 21
135.300003
 31
0.0
100
AcDbText
  0
LINE
  5
81
330
7E
100
AcDbEntity
  8
CSLAYER1
  6
CONTINUOUS
 62
     4
100
AcDbLine
 10
93.0
 20
128.8
 30
0.0
 11
83.97501
 21
128.8
 31
0.0
  0
LINE
  5
82
330
7E
100
AcDbEntity
  8
CSLAYER1
  6
CONTINUOUS
 62
     4
100
AcDbLine
 10
93.0
 20
132.8
 30
0.0
 11
83.97501
 21
132.8
 31
0.0
  0
LINE
  5
83
330
7E
100
AcDbEntity
  8
CSLAYER1
  6
CONTINUOUS
 62
     4
100
AcDbLine
 10
85.97500999999999
 20
128.8
 30
0.0
 11
85.97500999999999
 21
132.8
 31
0.0
  0
LINE
  5
84
330
7E
100
AcDbEntity
  8
CSLAYER1
  6
CONTINUOUS
 62
     4
100
AcDbLine
 10
85.97500999999999
 20
122.7999999999999
 30
0.0
 11
85.97500999999999
 21
128.8
 31
0.0
  0
LINE
  5
85
330
7E
100
AcDbEntity
  8
CSLAYER1
  6
CONTINUOUS
 62
     4
100
AcDbLine
 10
85.97500999999999
 20
128.8
 30
0.0
 11
85.198552
 21
125.902223
 31
0.0
  0
LINE
  5
86
330
7E
100
AcDbEntity
  8
CSLAYER1
  6
CONTINUOUS
 62
     4
100
AcDbLine
 10
85.97500999999999
 20
128.8
 30
0.0
 11
86.751467
 21
125.902223
 31
0.0
  0
LINE
  5
87
330
7E
100
AcDbEntity
  8
CSLAYER1
  6
CONTINUOUS
 62
     4
100
AcDbLine
 10
85.97500999999999
 20
132.8
 30
0.0
 11
85.97500999999999
 21
138.8
 31
0.0
  0
LINE
  5
88
330
7E
100
AcDbEntity
  8
CSLAYER1
  6
CONTINUOUS
 62
     4
100
AcDbLine
 10
85.97500999999999
 20
132.8
 30
0.0
 11
85.198552
 21
135.697777
 31
0.0
  0
LINE
  5
89
330
7E
100
AcDbEntity
  8
CSLAYER1
  6
CONTINUOUS
 62
     4
100
AcDbLine
 10
85.97500999999999
 20
132.8
 30
0.0
 11
86.751467
 21
135.697777
 31
0.0
  0
ENDBLK
  5
8A
330
7E
100
AcDbEntity
  8
0
100
AcDbBlockEnd
  0
BLOCK
  5
8C
330
8B
100
AcDbEntity
  8
0
100
AcDbBlockBegin
  2
*D7
 70
     1
 10
0.0
 20
0.0
 30
0.0
  3
*D7
  1

  0
TEXT
  5
8D
330
8B
100
AcDbEntity
  8
CSLAYER1
 62
     4
100
AcDbText
 10
114.764812
 20
118.143737
 30
0.0
 40
3.0
  1
R25
 50
68.52825670186579
 41
1.125000023059837
 51
15.0
  7
FX_FONT
 72
     5
 11
118.059193
 21
126.519121
 31
0.0
100
AcDbText
  0
LINE
  5
8E
330
8B
100
AcDbEntity
  8
CSLAYER1
  6
CONTINUOUS
 62
     4
100
AcDbLine
 10
110.328227
 20
119.2700899999999
 30
0.0
 11
117.752957
 21
138.14616
 31
0.0
  0
LINE
  5
8F
330
8B
100
AcDbEntity
  8
CSLAYER1
  6
CONTINUOUS
 62
     4
100
AcDbLine
 10
110.328227
 20
119.2700899999999
 30
0.0
 11
110.6663669999999
 21
122.250973
 31
0.0
  0
LINE
  5
90
330
8B
100
AcDbEntity
  8
CSLAYER1
  6
CONTINUOUS
 62
     4
100
AcDbLine
 10
110.328227
 20
119.2700899999999
 30
0.0
 11
112.111506
 21
121.6825399999999
 31
0.0
  0
ENDBLK
  5
91
330
8B
100
AcDbEntity
  8
0
100
AcDbBlockEnd
  0
BLOCK
  5
93
330
92
100
AcDbEntity
  8
0
100
AcDbBlockBegin
  2
*D8
 70
     1
 10
0.0
 20
0.0
 30
0.0
  3
*D8
  1

  0
TEXT
  5
94
330
92
100
AcDbEntity
  8
CSLAYER1
 62
     4
100
AcDbText
 10
28.84574699999999
 20
111.757703
 30
0.0
 40
3.0
  1
30%%d
 50
345.0000034244377
 41
1.28571434844865
 51
15.0
  7
FX_FONT
 72
     5
 11
37.53908
 21
109.428332
 31
0.0
100
AcDbText
  0
ARC
  5
95
330
92
100
AcDbEntity
  8
CSLAYER1
  6
CONTINUOUS
 62
     4
100
AcDbCircle
 10
38.60685699999999
 20
130.8
 30
0.0
 40
21.919811
100
AcDbArc
 50
239.9999999999999
 51
270.0
  0
LINE
  5
96
330
92
100
AcDbEntity
  8
CSLAYER1
  6
CONTINUOUS
 62
     4
100
AcDbLine
 10
27.646951
 20
111.816886
 30
0.0
 11
30.54472899999999
 21
111.0404289999999
 31
0.0
  0
LINE
  5
97
330
92
100
AcDbEntity
  8
CSLAYER1
  6
CONTINUOUS
 62
     4
100
AcDbLine
 10
27.646951
 20
111.816886
 30
0.0
 11
29.76827199999998
 21
109.6955659999997
 31
0.0
  0
LINE
  5
98
330
92
100
AcDbEntity
  8
CSLAYER1
  6
CONTINUOUS
 62
     4
100
AcDbLine
 10
38.60685699999999
 20
108.8801889999997
 30
0.0
 11
35.70908
 21
109.656646
 31
0.0
  0
LINE
  5
99
330
92
100
AcDbEntity
  8
CSLAYER1
  6
CONTINUOUS
 62
     4
100
AcDbLine
 10
38.60685699999999
 20
108.8801889999997
 30
0.0
 11
35.70908
 21
108.103731
 31
0.0
  0
LINE
  5
9A
330
92
100
AcDbEntity
  8
CSLAYER1
  6
CONTINUOUS
 62
     4
100
AcDbLine
 10
37.206857
 20
128.375129
 30
0.0
 11
26.646951
 21
110.084836
 31
0.0
  0
ENDBLK
  5
9B
330
92
100
AcDbEntity
  8
0
100
AcDbBlockEnd
  0
BLOCK
  5
9D
330
9C
100
AcDbEntity
  8
0
100
AcDbBlockBegin
  2
*D9
 70
     1
 10
0.0
 20
0.0
 30
0.0
  3
*D9
  1

  0
TEXT
  5
9E
330
9C
100
AcDbEntity
  8
CSLAYER1
 62
     4
100
AcDbText
 10
42.455064
 20
109.750543
 30
0.0
 40
3.0
  1
45%%d
 50
22.50000013414084
 41
1.285714319030604
 51
15.0
  7
FX_FONT
 72
     5
 11
50.76997999999999
 21
113.1946939999999
 31
0.0
100
AcDbText
  0
ARC
  5
9F
330
9C
100
AcDbEntity
  8
CSLAYER1
  6
CONTINUOUS
 62
     4
100
AcDbCircle
 10
38.60685699999999
 20
130.8
 30
0.0
 40
21.919811
100
AcDbArc
 50
270.0
 51
315.0
  0
LINE
  5
A0
330
9C
100
AcDbEntity
  8
CSLAYER1
  6
CONTINUOUS
 62
     4
100
AcDbLine
 10
38.60685699999999
 20
108.8801889999997
 30
0.0
 11
41.50463499999999
 21
109.656646
 31
0.0
  0
LINE
  5
A1
330
9C
100
AcDbEntity
  8
CSLAYER1
  6
CONTINUOUS
 62
     4
100
AcDbLine
 10
38.60685699999999
 20
108.8801889999997
 30
0.0
 11
41.50463499999999
 21
108.103731
 31
0.0
  0
LINE
  5
A2
330
9C
100
AcDbEntity
  8
CSLAYER1
  6
CONTINUOUS
 62
     4
100
AcDbLine
 10
54.106504
 20
115.300353
 30
0.0
 11
52.606504
 21
112.702276
 31
0.0
  0
LINE
  5
A3
330
9C
100
AcDbEntity
  8
CSLAYER1
  6
CONTINUOUS
 62
     4
100
AcDbLine
 10
54.106504
 20
115.300353
 30
0.0
 11
51.508428
 21
113.8003529999999
 31
0.0
  0
LINE
  5
A4
330
9C
100
AcDbEntity
  8
CSLAYER1
  6
CONTINUOUS
 62
     4
100
AcDbLine
 10
41.21584
 20
128.1910169999999
 30
0.0
 11
55.520718
 21
113.8861389999999
 31
0.0
  0
ENDBLK
  5
A5
330
9C
100
AcDbEntity
  8
0
100
AcDbBlockEnd
  0
BLOCK
  5
A7
330
A6
100
AcDbEntity
  8
0
100
AcDbBlockBegin
  2
*D10
 70
     1
 10
0.0
 20
0.0
 30
0.0
  3
*D10
  1

  0
TEXT
  5
A8
330
A6
100
AcDbEntity
  8
CSLAYER1
 62
     4
100
AcDbText
 10
84.668571
 20
48.313713
 30
0.0
 40
3.0
  1
(5.8)
 50
90.0
 41
1.153846153846154
 51
15.0
  7
FX_FONT
 72
     5
 11
84.668571
 21
63.313713
 31
0.0
100
AcDbText
  0
LINE
  5
A9
330
A6
100
AcDbEntity
  8
CSLAYER1
  6
CONTINUOUS
 62
     4
100
AcDbLine
 10
116.9963629999999
 20
75.4
 30
0.0
 11
83.49999999999999
 21
75.4
 31
0.0
  0
LINE
  5
AA
330
A6
100
AcDbEntity
  8
CSLAYER1
  6
CONTINUOUS
 62
     4
100
AcDbLine
 10
85.5
 20
63.79999999999999
 30
0.0
 11
85.5
 21
75.4
 31
0.0
  0
LINE
  5
AB
330
A6
100
AcDbEntity
  8
CSLAYER1
  6
CONTINUOUS
 62
     4
100
AcDbLine
 10
85.5
 20
63.79999999999999
 30
0.0
 11
84.72354300000002
 21
66.697777
 31
0.0
  0
LINE
  5
AC
330
A6
100
AcDbEntity
  8
CSLAYER1
  6
CONTINUOUS
 62
     4
100
AcDbLine
 10
85.5
 20
63.79999999999999
 30
0.0
 11
86.276457
 21
66.697777
 31
0.0
  0
LINE
  5
AD
330
A6
100
AcDbEntity
  8
CSLAYER1
  6
CONTINUOUS
 62
     4
100
AcDbLine
 10
85.5
 20
75.4
 30
0.0
 11
84.72354300000002
 21
72.502223
 31
0.0
  0
LINE
  5
AE
330
A6
100
AcDbEntity
  8
CSLAYER1
  6
CONTINUOUS
 62
     4
100
AcDbLine
 10
85.5
 20
75.4
 30
0.0
 11
86.276457
 21
72.502223
 31
0.0
  0
ENDBLK
  5
AF
330
A6
100
AcDbEntity
  8
0
100
AcDbBlockEnd
  0
BLOCK
  5
B1
330
B0
100
AcDbEntity
  8
0
100
AcDbBlockBegin
  2
*D11
 70
     1
 10
0.0
 20
0.0
 30
0.0
  3
*D11
  1

  0
TEXT
  5
B2
330
B0
100
AcDbEntity
  8
CSLAYER1
 62
     4
100
AcDbText
 10
46.57340399999998
 20
161.957686
 30
0.0
 40
3.0
  1
45%%d
 50
337.5000057474584
 41
1.285714264361557
 51
15.0
  7
FX_FONT
 72
     5
 11
54.88831999999999
 21
158.513536
 31
0.0
100
AcDbText
  0
ARC
  5
B3
330
B0
100
AcDbEntity
  8
CSLAYER1
  6
CONTINUOUS
 62
     4
100
AcDbCircle
 10
38.206857
 20
130.0
 30
0.0
 40
31.72679699999999
100
AcDbArc
 50
45.0
 51
90.0
  0
LINE
  5
B4
330
B0
100
AcDbEntity
  8
CSLAYER1
  6
CONTINUOUS
 62
     4
100
AcDbLine
 10
60.64109000000001
 20
152.434233
 30
0.0
 11
58.04301399999999
 21
153.934233
 31
0.0
  0
LINE
  5
B5
330
B0
100
AcDbEntity
  8
CSLAYER1
  6
CONTINUOUS
 62
     4
100
AcDbLine
 10
60.64109000000001
 20
152.434233
 30
0.0
 11
59.14109
 21
155.032309
 31
0.0
  0
LINE
  5
B6
330
B0
100
AcDbEntity
  8
CSLAYER1
  6
CONTINUOUS
 62
     4
100
AcDbLine
 10
38.206857
 20
161.726797
 30
0.0
 11
41.10463499999997
 21
162.503254
 31
0.0
  0
LINE
  5
B7
330
B0
100
AcDbEntity
  8
CSLAYER1
  6
CONTINUOUS
 62
     4
100
AcDbLine
 10
38.206857
 20
161.726797
 30
0.0
 11
41.10463499999997
 21
160.9503399999999
 31
0.0
  0
LINE
  5
B8
330
B0
100
AcDbEntity
  8
CSLAYER1
  6
CONTINUOUS
 62
     4
100
AcDbLine
 10
41.621071
 20
133.4142139999999
 30
0.0
 11
62.055304
 21
153.848447
 31
0.0
  0
LINE
  5
B9
330
B0
100
AcDbEntity
  8
CSLAYER1
  6
CONTINUOUS
 62
     4
100
AcDbLine
 10
38.206857
 20
147.8
 30
0.0
 11
38.206857
 21
163.726797
 31
0.0
  0
ENDBLK
  5
BA
330
B0
100
AcDbEntity
  8
0
100
AcDbBlockEnd
  0
BLOCK
  5
BC
330
BB
100
AcDbEntity
  8
0
100
AcDbBlockBegin
  2
*D12
 70
     1
 10
0.0
 20
0.0
 30
0.0
  3
*D12
  1

  0
TEXT
  5
BD
330
BB
100
AcDbEntity
  8
CSLAYER1
 62
     4
100
AcDbText
 10
41.92282
 20
155.894024
 30
0.0
 40
3.0
  1
35%%d
 50
342.5000001214358
 41
1.285714201461969
 51
15.0
  7
FX_FONT
 72
     5
 11
50.506272
 21
153.1876719999999
 31
0.0
100
AcDbText
  0
ARC
  5
BE
330
BB
100
AcDbEntity
  8
CSLAYER1
  6
CONTINUOUS
 62
     4
100
AcDbCircle
 10
38.206857
 20
129.143704
 30
0.0
 40
25.629648
100
AcDbArc
 50
55.0
 51
90.0
  0
LINE
  5
BF
330
BB
100
AcDbEntity
  8
CSLAYER1
  6
CONTINUOUS
 62
     4
100
AcDbLine
 10
52.907419
 20
150.138282
 30
0.0
 11
50.088341
 21
151.164343
 31
0.0
  0
LINE
  5
C0
330
BB
100
AcDbEntity
  8
CSLAYER1
  6
CONTINUOUS
 62
     4
100
AcDbLine
 10
52.907419
 20
150.138282
 30
0.0
 11
50.979056
 21
152.4364159999999
 31
0.0
  0
LINE
  5
C1
330
BB
100
AcDbEntity
  8
CSLAYER1
  6
CONTINUOUS
 62
     4
100
AcDbLine
 10
38.206857
 20
154.7733519999999
 30
0.0
 11
41.10463499999997
 21
155.549809
 31
0.0
  0
LINE
  5
C2
330
BB
100
AcDbEntity
  8
CSLAYER1
  6
CONTINUOUS
 62
     4
100
AcDbLine
 10
38.206857
 20
154.7733519999999
 30
0.0
 11
41.10463499999997
 21
153.996895
 31
0.0
  0
LINE
  5
C3
330
BB
100
AcDbEntity
  8
CSLAYER1
  6
CONTINUOUS
 62
     4
100
AcDbLine
 10
51.016874
 20
147.438304
 30
0.0
 11
54.054572
 21
151.776586
 31
0.0
  0
ENDBLK
  5
C4
330
BB
100
AcDbEntity
  8
0
100
AcDbBlockEnd
  0
BLOCK
  5
C6
330
C5
100
AcDbEntity
  8
0
100
AcDbBlockBegin
  2
*D13
 70
     1
 10
0.0
 20
0.0
 30
0.0
  3
*D13
  1

  0
TEXT
  5
C7
330
C5
100
AcDbEntity
  8
CSLAYER1
 62
     4
100
AcDbText
 10
21.623867
 20
138.153351
 30
0.0
 40
3.0
  1
(0.4)
 41
1.153846153846151
 51
15.0
  7
FX_FONT
 72
     5
 11
36.62386699999997
 21
138.153351
 31
0.0
100
AcDbText
  0
LINE
  5
C8
330
C5
100
AcDbEntity
  8
CSLAYER1
  6
CONTINUOUS
 62
     4
100
AcDbLine
 10
31.853513
 20
137.153344
 30
0.0
 11
32.653513
 21
137.153344
 31
0.0
  0
LINE
  5
C9
330
C5
100
AcDbEntity
  8
CSLAYER1
  6
CONTINUOUS
 62
     4
100
AcDbLine
 10
36.792644
 20
132.2142139999999
 30
0.0
 11
30.439299
 21
138.567558
 31
0.0
  0
LINE
  5
CA
330
C5
100
AcDbEntity
  8
CSLAYER1
  6
CONTINUOUS
 62
     4
100
AcDbLine
 10
37.592644
 20
132.2142139999999
 30
0.0
 11
31.239299
 21
138.567558
 31
0.0
  0
LINE
  5
CB
330
C5
100
AcDbEntity
  8
CSLAYER1
  6
CONTINUOUS
 62
     4
100
AcDbLine
 10
26.39422299999999
 20
137.153344
 30
0.0
 11
31.853513
 21
137.153344
 31
0.0
  0
LINE
  5
CC
330
C5
100
AcDbEntity
  8
CSLAYER1
  6
CONTINUOUS
 62
     4
100
AcDbLine
 10
31.853513
 20
137.153344
 30
0.0
 11
28.95573499999999
 21
137.929802
 31
0.0
  0
LINE
  5
CD
330
C5
100
AcDbEntity
  8
CSLAYER1
  6
CONTINUOUS
 62
     4
100
AcDbLine
 10
31.853513
 20
137.153344
 30
0.0
 11
28.95573499999999
 21
136.376887
 31
0.0
  0
LINE
  5
CE
330
C5
100
AcDbEntity
  8
CSLAYER1
  6
CONTINUOUS
 62
     4
100
AcDbLine
 10
32.653513
 20
137.153344
 30
0.0
 11
36.250864
 21
137.153344
 31
0.0
  0
LINE
  5
CF
330
C5
100
AcDbEntity
  8
CSLAYER1
  6
CONTINUOUS
 62
     4
100
AcDbLine
 10
32.653513
 20
137.153344
 30
0.0
 11
35.55129
 21
137.929802
 31
0.0
  0
LINE
  5
D0
330
C5
100
AcDbEntity
  8
CSLAYER1
  6
CONTINUOUS
 62
     4
100
AcDbLine
 10
32.653513
 20
137.153344
 30
0.0
 11
35.55129
 21
136.376887
 31
0.0
  0
ENDBLK
  5
D1
330
C5
100
AcDbEntity
  8
0
100
AcDbBlockEnd
  0
BLOCK
  5
D3
330
D2
100
AcDbEntity
  8
0
100
AcDbBlockBegin
  2
*D14
 70
     1
 10
0.0
 20
0.0
 30
0.0
  3
*D14
  1

  0
TEXT
  5
D4
330
D2
100
AcDbEntity
  8
CSLAYER1
 62
     4
100
AcDbText
 10
50.302681
 20
25.68158
 30
0.0
 40
3.0
  1
4
 50
90.0
 41
1.5
 51
15.0
  7
FX_FONT
 72
     5
 11
50.302681
 21
28.68158
 31
0.0
100
AcDbText
  0
LINE
  5
D5
330
D2
100
AcDbEntity
  8
CSLAYER1
  6
CONTINUOUS
 62
     4
100
AcDbLine
 10
51.30267899999999
 20
23.181579
 30
0.0
 11
51.30267899999999
 21
31.18157899999999
 31
0.0
  0
LINE
  5
D6
330
D2
100
AcDbEntity
  8
CSLAYER1
  6
CONTINUOUS
 62
     4
100
AcDbLine
 10
51.30267899999999
 20
23.181579
 30
0.0
 11
50.526222
 21
26.079356
 31
0.0
  0
LINE
  5
D7
330
D2
100
AcDbEntity
  8
CSLAYER1
  6
CONTINUOUS
 62
     4
100
AcDbLine
 10
51.30267899999999
 20
23.181579
 30
0.0
 11
52.079137
 21
26.079356
 31
0.0
  0
LINE
  5
D8
330
D2
100
AcDbEntity
  8
CSLAYER1
  6
CONTINUOUS
 62
     4
100
AcDbLine
 10
51.30267899999999
 20
31.18157899999999
 30
0.0
 11
50.526222
 21
28.283801
 31
0.0
  0
LINE
  5
D9
330
D2
100
AcDbEntity
  8
CSLAYER1
  6
CONTINUOUS
 62
     4
100
AcDbLine
 10
51.30267899999999
 20
31.18157899999999
 30
0.0
 11
52.079137
 21
28.283801
 31
0.0
  0
LINE
  5
DA
330
D2
100
AcDbEntity
  8
CSLAYER1
  6
CONTINUOUS
 62
     4
100
AcDbLine
 10
58.45478599999999
 20
23.181579
 30
0.0
 11
49.302679
 21
23.181579
 31
0.0
  0
LINE
  5
DB
330
D2
100
AcDbEntity
  8
CSLAYER1
  6
CONTINUOUS
 62
     4
100
AcDbLine
 10
58.45478599999999
 20
31.18157899999999
 30
0.0
 11
49.302679
 21
31.18157899999999
 31
0.0
  0
ENDBLK
  5
DC
330
D2
100
AcDbEntity
  8
0
100
AcDbBlockEnd
  0
BLOCK
  5
DE
330
DD
100
AcDbEntity
  8
0
100
AcDbBlockBegin
  2
*D15
 70
     1
 10
0.0
 20
0.0
 30
0.0
  3
*D15
  1

  0
TEXT
  5
DF
330
DD
100
AcDbEntity
  8
CSLAYER1
 62
     4
100
AcDbText
 10
97.5
 20
56.17908100000001
 30
0.0
 40
3.0
  1
切刃部有効13
 41
0.9130434782608698
 51
15.0
  7
FX_FONT
 72
     5
 11
118.5
 21
56.17908100000001
 31
0.0
100
AcDbText
  0
LINE
  5
E0
330
DD
100
AcDbEntity
  8
CSLAYER1
  6
CONTINUOUS
 62
     4
100
AcDbLine
 10
95.0
 20
55.17908199999999
 30
0.0
 11
121.0
 21
55.17908199999999
 31
0.0
  0
LINE
  5
E1
330
DD
100
AcDbEntity
  8
CSLAYER1
  6
CONTINUOUS
 62
     4
100
AcDbLine
 10
95.0
 20
55.17908199999999
 30
0.0
 11
97.89777700000001
 21
55.955539
 31
0.0
  0
LINE
  5
E2
330
DD
100
AcDbEntity
  8
CSLAYER1
  6
CONTINUOUS
 62
     4
100
AcDbLine
 10
95.0
 20
55.17908199999999
 30
0.0
 11
97.89777700000001
 21
54.40262399999999
 31
0.0
  0
LINE
  5
E3
330
DD
100
AcDbEntity
  8
CSLAYER1
  6
CONTINUOUS
 62
     4
100
AcDbLine
 10
121.0
 20
55.17908199999999
 30
0.0
 11
118.1022229999999
 21
55.955539
 31
0.0
  0
LINE
  5
E4
330
DD
100
AcDbEntity
  8
CSLAYER1
  6
CONTINUOUS
 62
     4
100
AcDbLine
 10
121.0
 20
55.17908199999999
 30
0.0
 11
118.1022229999999
 21
54.40262399999999
 31
0.0
  0
LINE
  5
E5
330
DD
100
AcDbEntity
  8
CSLAYER1
  6
CONTINUOUS
 62
     4
100
AcDbLine
 10
95.0
 20
61.79999999999999
 30
0.0
 11
95.0
 21
53.17908199999999
 31
0.0
  0
LINE
  5
E6
330
DD
100
AcDbEntity
  8
CSLAYER1
  6
CONTINUOUS
 62
     4
100
AcDbLine
 10
121.0
 20
61.79999999999999
 30
0.0
 11
121.0
 21
53.17908199999999
 31
0.0
  0
ENDBLK
  5
E7
330
DD
100
AcDbEntity
  8
0
100
AcDbBlockEnd
  0
BLOCK
  5
E9
330
E8
100
AcDbEntity
  8
0
100
AcDbBlockBegin
  2
*D16
 70
     1
 10
0.0
 20
0.0
 30
0.0
  3
*D16
  1

  0
TEXT
  5
EA
330
E8
100
AcDbEntity
  8
CSLAYER1
 62
     4
100
AcDbText
 10
116.0
 20
165.262299
 30
0.0
 40
3.0
  1
24
 41
1.2
 51
15.0
  7
FX_FONT
 72
     5
 11
122.0
 21
165.262299
 31
0.0
100
AcDbText
  0
LINE
  5
EB
330
E8
100
AcDbEntity
  8
CSLAYER1
  6
CONTINUOUS
 62
     4
100
AcDbLine
 10
95.0
 20
164.2622949999999
 30
0.0
 11
143.0
 21
164.2622949999999
 31
0.0
  0
LINE
  5
EC
330
E8
100
AcDbEntity
  8
CSLAYER1
  6
CONTINUOUS
 62
     4
100
AcDbLine
 10
95.0
 20
164.2622949999999
 30
0.0
 11
97.89777700000001
 21
165.0387519999999
 31
0.0
  0
LINE
  5
ED
330
E8
100
AcDbEntity
  8
CSLAYER1
  6
CONTINUOUS
 62
     4
100
AcDbLine
 10
95.0
 20
164.2622949999999
 30
0.0
 11
97.89777700000001
 21
163.485838
 31
0.0
  0
LINE
  5
EE
330
E8
100
AcDbEntity
  8
CSLAYER1
  6
CONTINUOUS
 62
     4
100
AcDbLine
 10
143.0
 20
164.2622949999999
 30
0.0
 11
140.102223
 21
165.0387519999999
 31
0.0
  0
LINE
  5
EF
330
E8
100
AcDbEntity
  8
CSLAYER1
  6
CONTINUOUS
 62
     4
100
AcDbLine
 10
143.0
 20
164.2622949999999
 30
0.0
 11
140.102223
 21
163.485838
 31
0.0
  0
LINE
  5
F0
330
E8
100
AcDbEntity
  8
CSLAYER1
  6
CONTINUOUS
 62
     4
100
AcDbLine
 10
95.0
 20
134.489444
 30
0.0
 11
95.0
 21
166.262295
 31
0.0
  0
LINE
  5
F1
330
E8
100
AcDbEntity
  8
CSLAYER1
  6
CONTINUOUS
 62
     4
100
AcDbLine
 10
143.0
 20
154.1129439999999
 30
0.0
 11
143.0
 21
166.262295
 31
0.0
  0
ENDBLK
  5
F2
330
E8
100
AcDbEntity
  8
0
100
AcDbBlockEnd
  0
BLOCK
  5
195
330
188
100
AcDbEntity
  8
0
100
AcDbBlockBegin
  2
*D17
 70
     1
 10
0.0
 20
0.0
 30
0.0
  3
*D17
  1

  0
LINE
  5
189
330
188
100
AcDbEntity
  8
CSLAYER1
 62
     0
100
AcDbLine
 10
38.17560698907225
 20
130.0530534185724
 30
0.0
 11
27.55694736175453
 21
111.6610040110765
 31
0.0
  0
LINE
  5
18A
330
188
100
AcDbEntity
  8
CSLAYER1
 62
     0
100
AcDbLine
 10
38.60685699999999
 20
129.9374999999999
 30
0.0
 11
38.60685700000006
 21
108.7001884515407
 31
0.0
  0
ARC
  5
18B
330
188
100
AcDbEntity
  8
CSLAYER1
 62
     0
100
AcDbCircle
 10
38.60685699999999
 20
130.8
 30
0.0
 40
21.9198115484593
100
AcDbArc
 50
240.470488339182
 51
254.0153686090016
  0
ARC
  5
18C
330
188
100
AcDbEntity
  8
CSLAYER1
 62
     0
100
AcDbCircle
 10
38.60685699999999
 20
130.8
 30
0.0
 40
21.9198115484593
100
AcDbArc
 50
255.9801061039783
 51
269.5295000932424
  0
SOLID
  5
18D
330
188
100
AcDbEntity
  8
CSLAYER1
 62
     0
100
AcDbTrace
 10
27.78830695755193
 20
111.7014872069572
 30
0.0
 11
27.81809336768468
 21
111.7535714634212
 31
0.0
 12
27.64694739322642
 22
111.8168885655875
 32
0.0
 13
27.64694739322642
 23
111.8168885655875
 33
0.0
  0
SOLID
  5
18E
330
188
100
AcDbEntity
  8
CSLAYER1
 62
     0
100
AcDbTrace
 10
38.42698169348656
 20
108.910927256115
 30
0.0
 11
38.42673534100365
 21
108.8509277618635
 31
0.0
 12
38.60685700000006
 22
108.8801884515407
 32
0.0
 13
38.60685700000006
 23
108.8801884515407
 33
0.0
  0
MTEXT
  5
18F
330
188
100
AcDbEntity
  8
CSLAYER1
 62
     0
100
AcDbMText
 10
32.93359016887682
 20
109.627088490648
 30
0.0
 40
0.18
 41
0.0
 71
     5
 72
     1
  1
\A1;30°
1001
ACAD
1000
MTEXTBEGIN
1070
    73
1070
     1
1070
    44
1040
1.0
1070
    74
1070
     0
1000
MTEXTEND
1000
MTEXTBEGIN
1070
    73
1070
     1
1070
    44
1040
1.0
1070
    74
1070
     0
1000
MTEXTEND
  0
POINT
  5
190
330
188
100
AcDbEntity
  8
DEFPOINTS
 62
     0
100
AcDbPoint
 10
31.10983714015501
 20
110.202115847955
 30
0.0
  0
POINT
  5
191
330
188
100
AcDbEntity
  8
DEFPOINTS
 62
     0
100
AcDbPoint
 10
38.60685699999999
 20
130.8
 30
0.0
  0
POINT
  5
192
330
188
100
AcDbEntity
  8
DEFPOINTS
 62
     0
100
AcDbPoint
 10
38.60685699999999
 20
130.0
 30
0.0
  0
POINT
  5
193
330
188
100
AcDbEntity
  8
DEFPOINTS
 62
     0
100
AcDbPoint
 10
38.60685699999999
 20
130.8
 30
0.0
  0
POINT
  5
194
330
188
100
AcDbEntity
  8
DEFPOINTS
 62
     0
100
AcDbPoint
 10
38.20685699999999
 20
130.10718
 30
0.0
  0
ENDBLK
  5
196
330
188
100
AcDbEntity
  8
0
100
AcDbBlockEnd
  0
BLOCK
  5
1A4
330
197
100
AcDbEntity
  8
0
100
AcDbBlockBegin
  2
*D18
 70
     1
 10
0.0
 20
0.0
 30
0.0
  3
*D18
  1

  0
LINE
  5
198
330
197
100
AcDbEntity
  8
CSLAYER1
 62
     0
100
AcDbLine
 10
38.60685699955875
 20
108.8176889999999
 30
0.0
 11
38.6068569987292
 21
108.7001885718415
 31
0.0
  0
LINE
  5
199
330
197
100
AcDbEntity
  8
CSLAYER1
 62
     0
100
AcDbLine
 10
39.84582017382416
 20
129.5610368261758
 30
0.0
 11
54.2337835237949
 21
115.1730734762052
 31
0.0
  0
ARC
  5
19A
330
197
100
AcDbEntity
  8
CSLAYER1
 62
     0
100
AcDbCircle
 10
38.60685699999997
 20
130.8
 30
0.0
 40
21.91981142815844
100
AcDbArc
 50
270.47049990934
 51
291.4345871389068
  0
ARC
  5
19B
330
197
100
AcDbEntity
  8
CSLAYER1
 62
     0
100
AcDbCircle
 10
38.60685699999997
 20
130.8
 30
0.0
 40
21.91981142815844
100
AcDbArc
 50
293.5736841311064
 51
314.5295000906603
  0
SOLID
  5
19C
330
197
100
AcDbEntity
  8
CSLAYER1
 62
     0
100
AcDbTrace
 10
38.78697865899706
 20
108.8509278821685
 30
0.0
 11
38.78673230651281
 21
108.9109273764202
 31
0.0
 12
38.60685699999999
 22
108.8801885718414
 32
0.0
 13
38.60685699999999
 23
108.8801885718414
 33
0.0
  0
SOLID
  5
19D
330
197
100
AcDbEntity
  8
CSLAYER1
 62
     0
100
AcDbTrace
 10
53.95757763701499
 20
115.1948972649788
 30
0.0
 11
53.99982948875592
 21
115.1522970182135
 31
0.0
 12
54.10650430318132
 22
115.3003526968189
 32
0.0
 13
54.10650430318132
 23
115.3003526968189
 33
0.0
  0
MTEXT
  5
19E
330
197
100
AcDbEntity
  8
CSLAYER1
 62
     0
100
AcDbMText
 10
46.99520567412327
 20
110.5487348650174
 30
0.0
 40
0.18
 41
0.0
 71
     5
 72
     1
  1
\A1;45°
1001
ACAD
1000
MTEXTBEGIN
1070
    73
1070
     1
1070
    44
1040
1.0
1070
    74
1070
     0
1000
MTEXTEND
1000
MTEXTBEGIN
1070
    73
1070
     1
1070
    44
1040
1.0
1070
    74
1070
     0
1000
MTEXTEND
  0
POINT
  5
19F
330
197
100
AcDbEntity
  8
DEFPOINTS
 62
     0
100
AcDbPoint
 10
44.28012166266332
 20
109.6270880341555
 30
0.0
  0
POINT
  5
1A0
330
197
100
AcDbEntity
  8
DEFPOINTS
 62
     0
100
AcDbPoint
 10
38.60685699999999
 20
130.8
 30
0.0
  0
POINT
  5
1A1
330
197
100
AcDbEntity
  8
DEFPOINTS
 62
     0
100
AcDbPoint
 10
39.80162599999999
 20
129.605231
 30
0.0
  0
POINT
  5
1A2
330
197
100
AcDbEntity
  8
DEFPOINTS
 62
     0
100
AcDbPoint
 10
38.60685699999999
 20
130.8
 30
0.0
  0
POINT
  5
1A3
330
197
100
AcDbEntity
  8
DEFPOINTS
 62
     0
100
AcDbPoint
 10
38.60685699999999
 20
108.8801889999998
 30
0.0
  0
ENDBLK
  5
1A5
330
197
100
AcDbEntity
  8
0
100
AcDbBlockEnd
  0
BLOCK
  5
1B3
330
1A6
100
AcDbEntity
  8
0
100
AcDbBlockBegin
  2
*D19
 70
     1
 10
0.0
 20
0.0
 30
0.0
  3
*D19
  1

  0
LINE
  5
1A7
330
1A6
100
AcDbEntity
  8
CSLAYER1
 62
     0
100
AcDbLine
 10
40.25105117382413
 20
132.0441941738241
 30
0.0
 11
60.76836939140687
 21
152.5615123914068
 31
0.0
  0
LINE
  5
1A8
330
1A6
100
AcDbEntity
  8
CSLAYER1
 62
     0
100
AcDbLine
 10
38.206857
 20
145.8625
 30
0.0
 11
38.206857
 21
161.9067968115761
 31
0.0
  0
ARC
  5
1A9
330
1A6
100
AcDbEntity
  8
CSLAYER1
 62
     0
100
AcDbCircle
 10
38.20685699999998
 20
130.0
 30
0.0
 40
31.72679681157624
100
AcDbArc
 50
45.32506446223938
 51
66.75911703755088
  0
ARC
  5
1AA
330
1A6
100
AcDbEntity
  8
CSLAYER1
 62
     0
100
AcDbCircle
 10
38.20685699999998
 20
130.0
 30
0.0
 40
31.72679681157624
100
AcDbArc
 50
68.23693550854407
 51
89.67493553776062
  0
SOLID
  5
1AB
330
1A6
100
AcDbEntity
  8
CSLAYER1
 62
     0
100
AcDbTrace
 10
60.534603349125
 20
152.5824241179223
 30
0.0
 11
60.4922974647409
 21
152.5398775299688
 31
0.0
 12
60.64109017079328
 22
152.4342331707931
 32
0.0
 13
60.64109017079328
 23
152.4342331707931
 33
0.0
  0
SOLID
  5
1AC
330
1A6
100
AcDbEntity
  8
CSLAYER1
 62
     0
100
AcDbTrace
 10
38.38677117420785
 20
161.6962863229026
 30
0.0
 11
38.38694137733401
 21
161.7562860814929
 31
0.0
 12
38.20685699999999
 22
161.726796811576
 32
0.0
 13
38.20685699999999
 23
161.726796811576
 33
0.0
  0
MTEXT
  5
1AD
330
1A6
100
AcDbEntity
  8
CSLAYER1
 62
     0
100
AcDbMText
 10
50.34817650180379
 20
159.3117382063596
 30
0.0
 40
0.18
 41
0.0
 71
     5
 72
     1
  1
\A1;45°
1001
ACAD
1000
MTEXTBEGIN
1070
    73
1070
     1
1070
    44
1040
1.0
1070
    74
1070
     0
1000
MTEXTEND
1000
MTEXTBEGIN
1070
    73
1070
     1
1070
    44
1040
1.0
1070
    74
1070
     0
1000
MTEXTEND
  0
POINT
  5
1AE
330
1A6
100
AcDbEntity
  8
DEFPOINTS
 62
     0
100
AcDbPoint
 10
54.07025540578811
 20
157.476212019532
 30
0.0
  0
POINT
  5
1AF
330
1A6
100
AcDbEntity
  8
DEFPOINTS
 62
     0
100
AcDbPoint
 10
38.20685699999998
 20
130.0
 30
0.0
  0
POINT
  5
1B0
330
1A6
100
AcDbEntity
  8
DEFPOINTS
 62
     0
100
AcDbPoint
 10
38.206857
 20
145.8
 30
0.0
  0
POINT
  5
1B1
330
1A6
100
AcDbEntity
  8
DEFPOINTS
 62
     0
100
AcDbPoint
 10
38.20685699999998
 20
130.0
 30
0.0
  0
POINT
  5
1B2
330
1A6
100
AcDbEntity
  8
DEFPOINTS
 62
     0
100
AcDbPoint
 10
40.20685699999999
 20
132.0
 30
0.0
  0
ENDBLK
  5
1B4
330
1A6
100
AcDbEntity
  8
0
100
AcDbBlockEnd
  0
BLOCK
  5
1C2
330
1B5
100
AcDbEntity
  8
0
100
AcDbBlockBegin
  2
*D20
 70
     1
 10
0.0
 20
0.0
 30
0.0
  3
*D20
  1

  0
LINE
  5
1B6
330
1B5
100
AcDbEntity
  8
CSLAYER1
 62
     0
100
AcDbLine
 10
49.90556952723512
 20
145.8511970027938
 30
0.0
 11
53.01066308644294
 21
150.2857301869121
 31
0.0
  0
LINE
  5
1B7
330
1B5
100
AcDbEntity
  8
CSLAYER1
 62
     0
100
AcDbLine
 10
38.20685699999998
 20
149.5397869999998
 30
0.0
 11
38.206857
 21
154.9533523109143
 31
0.0
  0
ARC
  5
1B8
330
1B5
100
AcDbEntity
  8
CSLAYER1
 62
     0
100
AcDbCircle
 10
38.20685699999998
 20
129.143704
 30
0.0
 40
25.62964831091437
100
AcDbArc
 50
55.40239578939857
 51
71.61175574273378
  0
ARC
  5
1B9
330
1B5
100
AcDbEntity
  8
CSLAYER1
 62
     0
100
AcDbCircle
 10
38.20685699999998
 20
129.143704
 30
0.0
 40
25.62964831091437
100
AcDbArc
 50
73.3839231911658
 51
89.59760425180794
  0
SOLID
  5
1BA
330
1B5
100
AcDbEntity
  8
CSLAYER1
 62
     0
100
AcDbTrace
 10
52.77673121457217
 20
150.2656430049805
 30
0.0
 11
52.74248943061248
 21
150.2163733365094
 31
0.0
 12
52.90741932800579
 22
150.1382828188659
 32
0.0
 13
52.90741932800579
 23
150.1382828188659
 33
0.0
  0
SOLID
  5
1BB
330
1B5
100
AcDbEntity
  8
CSLAYER1
 62
     0
100
AcDbTrace
 10
38.3867505434589
 20
154.7427204154164
 30
0.0
 11
38.38696123694695
 21
154.802720045484
 31
0.0
 12
38.206857
 22
154.7733523109144
 32
0.0
 13
38.206857
 23
154.7733523109144
 33
0.0
  0
MTEXT
  5
1BC
330
1B5
100
AcDbEntity
  8
CSLAYER1
 62
     0
100
AcDbMText
 10
45.9138408775571
 20
153.5871340386059
 30
0.0
 40
0.18
 41
0.0
 71
     5
 72
     1
  1
\A1;35°
1001
ACAD
1000
MTEXTBEGIN
1070
    73
1070
     1
1070
    44
1040
1.0
1070
    74
1070
     0
1000
MTEXTEND
1000
MTEXTBEGIN
1070
    73
1070
     1
1070
    44
1040
1.0
1070
    74
1070
     0
1000
MTEXTEND
  0
POINT
  5
1BD
330
1B5
100
AcDbEntity
  8
DEFPOINTS
 62
     0
100
AcDbPoint
 10
48.35824209536943
 20
152.6772598976255
 30
0.0
  0
POINT
  5
1BE
330
1B5
100
AcDbEntity
  8
DEFPOINTS
 62
     0
100
AcDbPoint
 10
38.20685699999999
 20
129.143704
 30
0.0
  0
POINT
  5
1BF
330
1B5
100
AcDbEntity
  8
DEFPOINTS
 62
     0
100
AcDbPoint
 10
38.20685699999998
 20
149.477287
 30
0.0
  0
POINT
  5
1C0
330
1B5
100
AcDbEntity
  8
DEFPOINTS
 62
     0
100
AcDbPoint
 10
38.20685699999999
 20
129.143704
 30
0.0
  0
POINT
  5
1C1
330
1B5
100
AcDbEntity
  8
DEFPOINTS
 62
     0
100
AcDbPoint
 10
49.869721
 20
145.8
 30
0.0
  0
ENDBLK
  5
1C3
330
1B5
100
AcDbEntity
  8
0
100
AcDbBlockEnd
  0
ENDSEC
  0
SECTION
  2
ENTITIES
  0
POINT
  5
F3
330
1E
100
AcDbEntity
  8
CSLAYER1
 62
     3
100
AcDbPoint
 10
2.5
 20
0.5
 30
0.0
  0
POINT
  5
F4
330
1E
100
AcDbEntity
  8
CSLAYER1
 62
     3
100
AcDbPoint
 10
125.2499999999999
 20
21.75
 30
0.0
  0
POINT
  5
F5
330
1E
100
AcDbEntity
  8
CSLAYER1
 62
     3
100
AcDbPoint
 10
135.4999999999999
 20
21.75
 30
0.0
  0
POINT
  5
F6
330
1E
100
AcDbEntity
  8
CSLAYER1
 62
     3
100
AcDbPoint
 10
135.4999999999999
 20
26.75
 30
0.0
  0
POINT
  5
F7
330
1E
100
AcDbEntity
  8
CSLAYER1
 62
     3
100
AcDbPoint
 10
125.2499999999999
 20
26.75
 30
0.0
  0
TEXT
  5
F8
330
1E
100
AcDbEntity
  8
CSLAYER1
 62
     3
100
AcDbText
 10
119.0499999999999
 20
25.5
 30
0.0
 40
2.5
  1
刃開キハ
 41
1.110447761194031
  7
FX_FONT
 72
     5
 11
131.45
 21
25.5
 31
0.0
100
AcDbText
  0
TEXT
  5
F9
330
1E
100
AcDbEntity
  8
CSLAYER1
 62
     3
100
AcDbText
 10
119.0
 20
20.5
 30
0.0
 40
2.5
  1
切刃部有効
 41
0.872093023255814
  7
FX_FONT
 72
     5
 11
131.4999999999999
 21
20.5
 31
0.0
100
AcDbText
  0
ARC
  5
FB
330
1E
100
AcDbEntity
  8
CSLAYER1
  6
CONTINUOUS
 62
     3
100
AcDbCircle
 10
71.5
 20
65.4
 30
0.0
 40
8.5
100
AcDbArc
 50
118.072487
 51
171.7867889999999
  0
ARC
  5
FC
330
1E
100
AcDbEntity
  8
CSLAYER1
  6
CONTINUOUS
 62
     3
100
AcDbCircle
 10
61.10769499999995
 20
63.9
 30
0.0
 40
2.0
100
AcDbArc
 50
48.590378
 51
79.125877
  0
ARC
  5
FD
330
1E
100
AcDbEntity
  8
CSLAYER1
  6
CONTINUOUS
 62
     3
100
AcDbCircle
 10
61.10769499999995
 20
66.90000000000001
 30
0.0
 40
2.0
100
AcDbArc
 50
280.874123
 51
351.786789
  0
LINE
  5
FE
330
1E
100
AcDbEntity
  8
CSLAYER1
  6
CONTINUOUS
 62
     3
100
AcDbLine
 10
61.69210649999995
 20
65.81271099999995
 30
0.0
 11
63.8589085
 21
72.9
 31
0.0
  0
LINE
  5
FF
330
1E
100
AcDbEntity
  8
CSLAYER1
  6
CONTINUOUS
 62
     3
100
AcDbLine
 10
64.31517149999989
 20
72.9
 30
0.0
 11
76.5
 21
72.9
 31
0.0
  0
LINE
  5
100
330
1E
100
AcDbEntity
  8
CSLAYER1
  6
CONTINUOUS
 62
     3
100
AcDbLine
 10
76.5
 20
57.89999999999995
 30
0.0
 11
64.31517149999989
 21
57.89999999999995
 31
0.0
  0
CIRCLE
  5
101
330
1E
100
AcDbEntity
  8
CSLAYER1
  6
CONTINUOUS
 62
     3
100
AcDbCircle
 10
71.5
 20
65.4
 30
0.0
 40
5.5
  0
CIRCLE
  5
102
330
1E
100
AcDbEntity
  8
CSLAYER1
  6
CONTINUOUS
 62
     3
100
AcDbCircle
 10
71.5
 20
65.4
 30
0.0
 40
2.049999999999998
  0
LINE
  5
103
330
1E
100
AcDbEntity
  8
CSLAYER1
  6
CONTINUOUS
 62
     3
100
AcDbLine
 10
74.3722815
 20
38.9
 30
0.0
 11
74.3722815
 21
35.89999999999999
 31
0.0
  0
LINE
  5
104
330
1E
100
AcDbEntity
  8
CSLAYER1
  6
CONTINUOUS
 62
     3
100
AcDbLine
 10
74.3722815
 20
35.89999999999999
 30
0.0
 11
73.8722815
 21
35.4
 31
0.0
  0
LINE
  5
105
330
1E
100
AcDbEntity
  8
CSLAYER1
  6
CONTINUOUS
 62
     3
100
AcDbLine
 10
69.1277185
 20
35.4
 30
0.0
 11
68.6277185
 21
34.9
 31
0.0
  0
LINE
  5
106
330
1E
100
AcDbEntity
  8
CSLAYER1
  6
CONTINUOUS
 62
     3
100
AcDbLine
 10
68.6277185
 20
34.9
 30
0.0
 11
68.6277185
 21
31.89999999999999
 31
0.0
  0
LINE
  5
107
330
1E
100
AcDbEntity
  8
CSLAYER1
  6
CONTINUOUS
 62
     3
100
AcDbLine
 10
63.46650450000001
 20
31.89999999999999
 30
0.0
 11
63.46650450000001
 21
34.9
 31
0.0
  0
LINE
  5
108
330
1E
100
AcDbEntity
  8
CSLAYER1
  6
CONTINUOUS
 62
     3
100
AcDbLine
 10
63.9665045
 20
35.4
 30
0.0
 11
79.0334955
 21
35.4
 31
0.0
  0
ARC
  5
109
330
1E
100
AcDbEntity
  8
CSLAYER1
  6
CONTINUOUS
 62
     3
100
AcDbCircle
 10
79.0334955
 20
35.89999999999999
 30
0.0
 40
0.5
100
AcDbArc
 50
270.0
 51
0.0
  0
LINE
  5
10A
330
1E
100
AcDbEntity
  8
CSLAYER1
  6
CONTINUOUS
 62
     3
100
AcDbLine
 10
79.5334955
 20
35.89999999999999
 30
0.0
 11
79.5334955
 21
38.9
 31
0.0
  0
ARC
  5
10B
330
1E
100
AcDbEntity
  8
CSLAYER1
  6
CONTINUOUS
 62
     3
100
AcDbCircle
 10
63.9665045
 20
34.9
 30
0.0
 40
0.5
100
AcDbArc
 50
90.0
 51
180.0
  0
LINE
  5
10C
330
1E
100
AcDbEntity
  8
CSLAYER1
  6
CONTINUOUS
 62
     3
100
AcDbLine
 10
47.5
 20
31.89999999999999
 30
0.0
 11
108.0
 21
31.89999999999999
 31
0.0
  0
LINE
  5
10D
330
1E
100
AcDbEntity
  8
CSLAYER1
  6
CONTINUOUS
 62
     3
100
AcDbLine
 10
108.0
 20
38.9
 30
0.0
 11
61.5
 21
38.9
 31
0.0
  0
LINE
  5
10E
330
1E
100
AcDbEntity
  8
CSLAYER1
  6
CONTINUOUS
 62
     3
100
AcDbLine
 10
119.0
 20
20.0
 30
0.0
 11
139.5
 21
20.0
 31
0.0
  0
LINE
  5
10F
330
1E
100
AcDbEntity
  8
CSLAYER1
  6
CONTINUOUS
 62
     3
100
AcDbLine
 10
139.5
 20
25.0
 30
0.0
 11
119.0
 21
25.0
 31
0.0
  0
LINE
  5
110
330
1E
100
AcDbEntity
  8
CSLAYER1
  6
CENTER
 62
     4
100
AcDbLine
 10
71.5
 20
29.41142849999999
 30
0.0
 11
71.5
 21
41.887143
 31
0.0
  0
LINE
  5
111
330
1E
100
AcDbEntity
  8
CSLAYER1
  6
CENTER
 62
     4
100
AcDbLine
 10
79.0334955
 20
35.4
 30
0.0
 11
82.57785699999995
 21
35.4
 31
0.0
  0
LINE
  5
112
330
1E
100
AcDbEntity
  8
CSLAYER1
  6
CENTER
 62
     4
100
AcDbLine
 10
114.557857
 20
65.4
 30
0.0
 11
61.5
 21
65.4
 31
0.0
  0
LINE
  5
113
330
1E
100
AcDbEntity
  8
CSLAYER1
  6
CENTER
 62
     4
100
AcDbLine
 10
71.5
 20
76.05647199999996
 30
0.0
 11
71.5
 21
54.36285699999995
 31
0.0
  0
LINE
  5
114
330
1E
100
AcDbEntity
  8
CSLAYER1
  6
CONTINUOUS
 62
     3
100
AcDbLine
 10
61.5
 20
65.4
 30
0.0
 11
47.5
 21
65.4
 31
0.0
  0
LINE
  5
115
330
1E
100
AcDbEntity
  8
CSLAYER1
  6
CONTINUOUS
 62
     3
100
AcDbLine
 10
19.1034285
 20
72.9
 30
0.0
 11
24.9348605
 21
72.9
 31
0.0
  0
LINE
  5
116
330
1E
100
AcDbEntity
  8
CSLAYER1
  6
CONTINUOUS
 62
     3
100
AcDbLine
 10
24.9348605
 20
57.89999999999995
 30
0.0
 11
19.1034285
 21
57.89999999999995
 31
0.0
  0
LINE
  5
117
330
1E
100
AcDbEntity
  8
CSLAYER1
  6
CONTINUOUS
 62
     3
100
AcDbLine
 10
19.1034285
 20
57.89999999999995
 30
0.0
 11
19.1034285
 21
65.05359
 31
0.0
  0
LINE
  5
118
330
1E
100
AcDbEntity
  8
CSLAYER1
  6
CENTER
 62
     4
100
AcDbLine
 10
17.2764025
 20
65.4
 30
0.0
 11
28.4593405
 21
65.4
 31
0.0
  0
LINE
  5
119
330
1E
100
AcDbEntity
  8
CSLAYER1
  6
CONTINUOUS
 62
     3
100
AcDbLine
 10
47.5
 20
31.89999999999999
 30
0.0
 11
47.5
 21
32.9
 31
0.0
  0
LINE
  5
11A
330
1E
100
AcDbEntity
  8
CSLAYER1
  6
CONTINUOUS
 62
     3
100
AcDbLine
 10
61.5
 20
38.9
 30
0.0
 11
61.5
 21
38.7
 31
0.0
  0
LINE
  5
11B
330
1E
100
AcDbEntity
  8
CSLAYER1
  6
CONTINUOUS
 62
     3
100
AcDbLine
 10
60.5
 20
37.7
 30
0.0
 11
58.49818149999995
 21
37.7
 31
0.0
  0
ARC
  5
11C
330
1E
100
AcDbEntity
  8
CSLAYER1
  6
CONTINUOUS
 62
     3
100
AcDbCircle
 10
60.5
 20
38.7
 30
0.0
 40
1.0
100
AcDbArc
 50
270.0
 51
0.0
  0
LINE
  5
11D
330
1E
100
AcDbEntity
  8
CSLAYER1
  6
DASHED
 62
     4
100
AcDbLine
 10
61.5
 20
38.7
 30
0.0
 11
61.5
 21
32.9
 31
0.0
  0
ARC
  5
11E
330
1E
100
AcDbEntity
  8
CSLAYER1
  6
DASHED
 62
     4
100
AcDbCircle
 10
60.5
 20
32.9
 30
0.0
 40
1.0
100
AcDbArc
 50
270.0
 51
0.0
  0
INSERT
  5
11F
330
1E
100
AcDbEntity
  8
CSLAYER1
100
AcDbBlockReference
  2
FXDIM0001
 10
0.0
 20
0.0
 30
0.0
 41
0.5
 42
0.5
 43
0.5
  0
INSERT
  5
120
330
1E
100
AcDbEntity
  8
CSLAYER1
100
AcDbBlockReference
  2
FXDIM0002
 10
0.0
 20
0.0
 30
0.0
 41
0.5
 42
0.5
 43
0.5
  0
TEXT
  5
123
330
1E
100
AcDbEntity
  8
CSLAYER1
 62
     3
100
AcDbText
 10
134.25
 20
25.5
 30
0.0
 40
2.5
  1
4
 41
1.499999999999982
  7
FX_FONT
 72
     5
 11
136.7499999999999
 21
25.5
 31
0.0
100
AcDbText
  0
TEXT
  5
124
330
1E
100
AcDbEntity
  8
CSLAYER1
 62
     3
100
AcDbText
 10
133.0
 20
20.5
 30
0.0
 40
2.5
  1
13
 41
1.199999999999999
  7
FX_FONT
 72
     5
 11
138.0
 21
20.5
 31
0.0
100
AcDbText
  0
LINE
  5
125
330
1E
100
AcDbEntity
  8
CSLAYER1
  6
CONTINUOUS
 62
     3
100
AcDbLine
 10
47.5
 20
66.24472199999999
 30
0.0
 11
60.986265
 21
66.24472199999999
 31
0.0
  0
LINE
  5
126
330
1E
100
AcDbEntity
  8
CSLAYER1
  6
CONTINUOUS
 62
     3
100
AcDbLine
 10
47.57974799999999
 20
64.3278275
 30
0.0
 11
60.9834465
 21
64.3278275
 31
0.0
  0
LINE
  5
127
330
1E
100
AcDbEntity
  8
CSLAYER1
  6
CONTINUOUS
 62
     3
100
AcDbLine
 10
47.5
 20
66.4
 30
0.0
 11
47.5
 21
64.40000000000001
 31
0.0
  0
ARC
  5
128
330
1E
100
AcDbEntity
  8
CSLAYER1
  6
CONTINUOUS
 62
     3
100
AcDbCircle
 10
64.31517149999989
 20
47.9
 30
0.0
 40
25.0
100
AcDbArc
 50
90.0
 51
132.268584
  0
ARC
  5
129
330
1E
100
AcDbEntity
  8
CSLAYER1
  6
CONTINUOUS
 62
     3
100
AcDbCircle
 10
64.31517149999989
 20
82.9
 30
0.0
 40
25.0
100
AcDbArc
 50
227.731416
 51
270.0
  0
LINE
  5
12A
330
1E
100
AcDbEntity
  8
CSLAYER1
  6
CENTER
 62
     4
100
AcDbLine
 10
47.5
 20
65.4
 30
0.0
 11
45.17447599999999
 21
65.4
 31
0.0
  0
LINE
  5
12E
330
1E
100
AcDbEntity
  8
CSLAYER1
  6
CONTINUOUS
 62
     3
100
AcDbLine
 10
19.5034285
 20
65.4
 30
0.0
 11
20.1034285
 21
66.0
 31
0.0
  0
LINE
  5
12F
330
1E
100
AcDbEntity
  8
CSLAYER1
  6
CONTINUOUS
 62
     3
100
AcDbLine
 10
19.30342849999999
 20
65.4
 30
0.0
 11
20.570557
 21
64.13287199999995
 31
0.0
  0
LINE
  5
130
330
1E
100
AcDbEntity
  8
CSLAYER1
  6
CONTINUOUS
 62
     3
100
AcDbLine
 10
19.30342849999999
 20
65.4
 30
0.0
 11
19.1034285
 21
65.05359
 31
0.0
  0
LINE
  5
131
330
1E
100
AcDbEntity
  8
CSLAYER1
  6
CONTINUOUS
 62
     3
100
AcDbLine
 10
19.1034285
 20
65.4
 30
0.0
 11
19.1034285
 21
72.9
 31
0.0
  0
LINE
  5
132
330
1E
100
AcDbEntity
  8
CSLAYER1
  6
CONTINUOUS
 62
     3
100
AcDbLine
 10
19.1034285
 20
65.4
 30
0.0
 11
19.5034285
 21
65.4
 31
0.0
  0
LINE
  5
137
330
1E
100
AcDbEntity
  8
CSLAYER1
  6
CONTINUOUS
 62
     3
100
AcDbLine
 10
20.1034285
 20
66.0
 30
0.0
 11
24.9348605
 21
72.9
 31
0.0
  0
LINE
  5
138
330
1E
100
AcDbEntity
  8
CSLAYER1
  6
CONTINUOUS
 62
     3
100
AcDbLine
 10
20.570557
 20
64.13287199999995
 30
0.0
 11
24.9348605
 21
57.89999999999995
 31
0.0
  0
ARC
  5
139
330
1E
100
AcDbEntity
  8
CSLAYER1
  6
CONTINUOUS
 62
     3
100
AcDbCircle
 10
58.49818149999995
 20
22.7
 30
0.0
 40
15.0
100
AcDbArc
 50
90.0
 51
137.156357
  0
LINE
  5
13A
330
1E
100
AcDbEntity
  8
CSLAYER1
  6
CENTER
 62
     4
100
AcDbLine
 10
63.9665045
 20
35.4
 30
0.0
 11
59.285143
 21
35.4
 31
0.0
  0
ARC
  5
13D
330
1E
100
AcDbEntity
  8
CSLAYER1
  6
CONTINUOUS
 62
     3
100
AcDbCircle
 10
23.98787099999999
 20
65.4
 30
0.0
 40
37.5
100
AcDbArc
 50
348.854378
 51
11.14562199999999
  0
ARC
  5
13E
330
1E
100
AcDbEntity
  8
CSLAYER1
  6
CONTINUOUS
 62
     3
100
AcDbCircle
 10
60.9834465
 20
64.8278275
 30
0.0
 40
0.5
100
AcDbArc
 50
270.0
 51
359.113935
  0
ARC
  5
13F
330
1E
100
AcDbEntity
  8
CSLAYER1
  6
CONTINUOUS
 62
     3
100
AcDbCircle
 10
60.986265
 20
65.74472199999995
 30
0.0
 40
0.5
100
AcDbArc
 50
0.533822
 51
90.0
  0
ARC
  5
141
330
1E
100
AcDbEntity
  8
CSLAYER1
  6
CONTINUOUS
 62
     3
100
AcDbCircle
 10
54.1439145
 20
13.5907895
 30
0.0
 40
8.5
100
AcDbArc
 50
122.8526789999999
 51
176.566981
  0
ARC
  5
142
330
1E
100
AcDbEntity
  8
CSLAYER1
  6
CONTINUOUS
 62
     3
100
AcDbCircle
 10
43.662757
 20
12.9620325
 30
0.0
 40
2.0
100
AcDbArc
 50
18.323304
 51
74.34568500000001
  0
ARC
  5
143
330
1E
100
AcDbEntity
  8
CSLAYER1
  6
CONTINUOUS
 62
     3
100
AcDbCircle
 10
43.662757
 20
14.21954649999999
 30
0.0
 40
2.0
100
AcDbArc
 50
285.6543149999998
 51
356.566981
  0
LINE
  5
144
330
1E
100
AcDbEntity
  8
CSLAYER1
  6
CONTINUOUS
 62
     3
100
AcDbLine
 10
44.40452849999998
 20
14.81938949999999
 30
0.0
 11
47.1544005
 21
21.70146
 31
0.0
  0
LINE
  5
145
330
1E
100
AcDbEntity
  8
CSLAYER1
  6
CONTINUOUS
 62
     3
100
AcDbLine
 10
47.60907699999999
 20
21.66343799999999
 30
0.0
 11
54.1439145
 21
21.11696749999999
 31
0.0
  0
LINE
  5
146
330
1E
100
AcDbEntity
  8
CSLAYER1
  6
CONTINUOUS
 62
     3
100
AcDbLine
 10
58.320799
 20
6.413899999999999
 30
0.0
 11
47.60907699999999
 21
5.518140999999995
 31
0.0
  0
CIRCLE
  5
147
330
1E
100
AcDbEntity
  8
CSLAYER1
  6
CONTINUOUS
 62
     3
100
AcDbCircle
 10
54.1439145
 20
13.5907895
 30
0.0
 40
5.5
  0
CIRCLE
  5
148
330
1E
100
AcDbEntity
  8
CSLAYER1
  6
CONTINUOUS
 62
     3
100
AcDbCircle
 10
54.1439145
 20
13.5907895
 30
0.0
 40
2.049999999999998
  0
LINE
  5
149
330
1E
100
AcDbEntity
  8
CSLAYER1
  6
CENTER
 62
     4
100
AcDbLine
 10
61.03865149999995
 20
13.5907895
 30
0.0
 11
28.7700315
 21
13.5907895
 31
0.0
  0
LINE
  5
14A
330
1E
100
AcDbEntity
  8
CSLAYER1
  6
CENTER
 62
     4
100
AcDbLine
 10
54.1439145
 20
24.2472615
 30
0.0
 11
54.1439145
 21
2.5536465
 31
0.0
  0
LINE
  5
14B
330
1E
100
AcDbEntity
  8
CSLAYER1
  6
CONTINUOUS
 62
     3
100
AcDbLine
 10
44.17869699999999
 20
14.424123
 30
0.0
 11
30.227393
 21
15.59078949999999
 31
0.0
  0
LINE
  5
14C
330
1E
100
AcDbEntity
  8
CSLAYER1
  6
CONTINUOUS
 62
     3
100
AcDbLine
 10
9.51872449999999
 20
23.09078949999999
 30
0.0
 11
15.3501565
 21
23.09078949999999
 31
0.0
  0
LINE
  5
14D
330
1E
100
AcDbEntity
  8
CSLAYER1
  6
CONTINUOUS
 62
     3
100
AcDbLine
 10
15.3501565
 20
4.090789499999999
 30
0.0
 11
9.51872449999999
 21
4.090789499999999
 31
0.0
  0
LINE
  5
14E
330
1E
100
AcDbEntity
  8
CSLAYER1
  6
CONTINUOUS
 62
     3
100
AcDbLine
 10
9.51872449999999
 20
4.090789499999999
 30
0.0
 11
9.51872449999999
 21
11.24437949999999
 31
0.0
  0
LINE
  5
14F
330
1E
100
AcDbEntity
  8
CSLAYER1
  6
CENTER
 62
     4
100
AcDbLine
 10
7.6916985
 20
13.5907895
 30
0.0
 11
18.87463649999998
 21
13.5907895
 31
0.0
  0
LINE
  5
150
330
1E
100
AcDbEntity
  8
CSLAYER1
  6
CONTINUOUS
 62
     3
100
AcDbLine
 10
30.2977865
 20
16.4325735
 30
0.0
 11
43.73714249999999
 21
15.30871799999999
 31
0.0
  0
LINE
  5
151
330
1E
100
AcDbEntity
  8
CSLAYER1
  6
CONTINUOUS
 62
     3
100
AcDbLine
 10
30.3962115
 20
10.528992
 30
0.0
 11
43.753288
 21
11.6459665
 31
0.0
  0
LINE
  5
152
330
1E
100
AcDbEntity
  8
CSLAYER1
  6
CONTINUOUS
 62
     3
100
AcDbLine
 10
30.227393
 20
15.59078949999999
 30
0.0
 11
30.3107265
 21
16.58731099999999
 31
0.0
  0
ARC
  5
153
330
1E
100
AcDbEntity
  8
CSLAYER1
  6
CONTINUOUS
 62
     3
100
AcDbCircle
 10
45.52574349999999
 20
-3.249604999999998
 30
0.0
 40
25.0
100
AcDbArc
 50
85.21980799999999
 51
127.4883929999999
  0
ARC
  5
154
330
1E
100
AcDbEntity
  8
CSLAYER1
  6
CONTINUOUS
 62
     3
100
AcDbCircle
 10
45.52574349999999
 20
30.431184
 30
0.0
 40
25.0
100
AcDbArc
 50
232.5116069999999
 51
274.780192
  0
LINE
  5
155
330
1E
100
AcDbEntity
  8
CSLAYER1
  6
CONTINUOUS
 62
     3
100
AcDbLine
 10
9.91872449999999
 20
15.59078949999999
 30
0.0
 11
10.5187245
 21
16.19078949999999
 31
0.0
  0
LINE
  5
156
330
1E
100
AcDbEntity
  8
CSLAYER1
  6
CONTINUOUS
 62
     3
100
AcDbLine
 10
9.718724499999989
 20
11.5907895
 30
0.0
 11
10.985853
 21
10.3236615
 31
0.0
  0
LINE
  5
157
330
1E
100
AcDbEntity
  8
CSLAYER1
  6
CONTINUOUS
 62
     3
100
AcDbLine
 10
9.718724499999989
 20
11.5907895
 30
0.0
 11
9.51872449999999
 21
11.24437949999999
 31
0.0
  0
LINE
  5
158
330
1E
100
AcDbEntity
  8
CSLAYER1
  6
CONTINUOUS
 62
     3
100
AcDbLine
 10
9.51872449999999
 20
15.59078949999999
 30
0.0
 11
9.51872449999999
 21
23.09078949999999
 31
0.0
  0
LINE
  5
159
330
1E
100
AcDbEntity
  8
CSLAYER1
  6
CONTINUOUS
 62
     3
100
AcDbLine
 10
9.51872449999999
 20
15.59078949999999
 30
0.0
 11
9.91872449999999
 21
15.59078949999999
 31
0.0
  0
LINE
  5
15A
330
1E
100
AcDbEntity
  8
CSLAYER1
  6
CONTINUOUS
 62
     3
100
AcDbLine
 10
10.5187245
 20
16.19078949999999
 30
0.0
 11
15.3501565
 21
23.09078949999999
 31
0.0
  0
LINE
  5
15B
330
1E
100
AcDbEntity
  8
CSLAYER1
  6
CONTINUOUS
 62
     3
100
AcDbLine
 10
10.985853
 20
10.3236615
 30
0.0
 11
15.3501565
 21
4.090789499999999
 31
0.0
  0
ARC
  5
15C
330
1E
100
AcDbEntity
  8
CSLAYER1
  6
CONTINUOUS
 62
     3
100
AcDbCircle
 10
6.7970455
 20
17.55013349999999
 30
0.0
 40
37.5
100
AcDbArc
 50
355.219808
 51
6.365431
  0
ARC
  5
15D
330
1E
100
AcDbEntity
  8
CSLAYER1
  6
CONTINUOUS
 62
     3
100
AcDbCircle
 10
43.71162149999999
 20
12.14422749999999
 30
0.0
 40
0.5
100
AcDbArc
 50
274.780192
 51
3.894127
  0
ARC
  5
15E
330
1E
100
AcDbEntity
  8
CSLAYER1
  6
CONTINUOUS
 62
     3
100
AcDbCircle
 10
43.69547599999999
 20
14.8104575
 30
0.0
 40
0.5
100
AcDbArc
 50
355.7536299999998
 51
85.21980799999999
  0
LINE
  5
15F
330
1E
100
AcDbEntity
  8
CSLAYER1
  6
CONTINUOUS
 62
     3
100
AcDbLine
 10
30.3107265
 20
10.5942675
 30
0.0
 11
30.227393
 21
11.5907895
 31
0.0
  0
LINE
  5
160
330
1E
100
AcDbEntity
  8
CSLAYER1
  6
CONTINUOUS
 62
     3
100
AcDbLine
 10
30.227393
 20
11.5907895
 30
0.0
 11
44.16661
 21
12.75644549999999
 31
0.0
  0
ARC
  5
161
330
1E
100
AcDbEntity
  8
CSLAYER1
  6
CONTINUOUS
 62
     3
100
AcDbCircle
 10
6.7970455
 20
9.631445499999994
 30
0.0
 40
37.5
100
AcDbArc
 50
353.634569
 51
4.780191999999997
  0
LINE
  5
162
330
1E
100
AcDbEntity
  8
CSLAYER1
  6
CONTINUOUS
 62
     3
100
AcDbLine
 10
57.32238149999995
 20
21.3827645
 30
0.0
 11
49.5328275
 21
20.731369
 31
0.0
  0
TEXT
  5
166
330
1E
100
AcDbEntity
  8
CSLAYER1
 62
     3
100
AcDbText
 10
126.3179625
 20
5.338399999999995
 30
0.0
 40
2.0
  1
N5BJ
 41
1.090909090909087
  7
FX_FONT
 72
     5
 11
134.3179624999999
 21
5.338399999999995
 31
0.0
100
AcDbText
  0
ARC
  5
167
330
1E
100
AcDbEntity
  8
CSLAYER1
  6
CONTINUOUS
 62
     3
100
AcDbCircle
 10
105.5374209999999
 20
65.069069
 30
0.0
 40
6.0
100
AcDbArc
 50
281.869117
 51
353.5975439999998
  0
LINE
  5
168
330
1E
100
AcDbEntity
  8
CSLAYER1
  6
CONTINUOUS
 62
     3
100
AcDbLine
 10
111.4999999999999
 20
64.40000000000001
 30
0.0
 11
80.5
 21
64.40000000000001
 31
0.0
  0
LINE
  5
169
330
1E
100
AcDbEntity
  8
CSLAYER1
  6
CONTINUOUS
 62
     3
100
AcDbLine
 10
81.128341
 20
64.40000000000001
 30
0.0
 11
79.17615649999991
 21
58.0146925
 31
0.0
  0
LINE
  5
16A
330
1E
100
AcDbEntity
  8
CSLAYER1
  6
CONTINUOUS
 62
     3
100
AcDbLine
 10
76.5
 20
72.9
 30
0.0
 11
106.7714814999999
 21
71.60265099999991
 31
0.0
  0
LINE
  5
16B
330
1E
100
AcDbEntity
  8
CSLAYER1
  6
CONTINUOUS
 62
     3
100
AcDbLine
 10
106.7714814999999
 20
59.19734899999995
 30
0.0
 11
76.5
 21
57.89999999999995
 31
0.0
  0
ARC
  5
16C
330
1E
100
AcDbEntity
  8
CSLAYER1
  6
CONTINUOUS
 62
     3
100
AcDbCircle
 10
71.5
 20
65.4
 30
0.0
 40
8.5
100
AcDbArc
 50
298.072487
 51
3.366461
  0
LINE
  5
16D
330
1E
100
AcDbEntity
  8
CSLAYER1
  6
CONTINUOUS
 62
     3
100
AcDbLine
 10
80.0
 20
65.4
 30
0.0
 11
80.0
 21
64.90000000000001
 31
0.0
  0
ARC
  5
16E
330
1E
100
AcDbEntity
  8
CSLAYER1
  6
CONTINUOUS
 62
     3
100
AcDbCircle
 10
80.5
 20
64.90000000000001
 30
0.0
 40
0.5
100
AcDbArc
 50
180.0
 51
270.0
  0
LINE
  5
16F
330
1E
100
AcDbEntity
  8
CSLAYER1
  6
CONTINUOUS
 62
     3
100
AcDbLine
 10
80.5
 20
66.4
 30
0.0
 11
111.4999999999999
 21
66.4
 31
0.0
  0
ARC
  5
170
330
1E
100
AcDbEntity
  8
CSLAYER1
  6
CONTINUOUS
 62
     3
100
AcDbCircle
 10
105.5374209999999
 20
65.73093100000001
 30
0.0
 40
6.0
100
AcDbArc
 50
6.402455999999999
 51
78.130883
  0
ARC
  5
171
330
1E
100
AcDbEntity
  8
CSLAYER1
  6
CONTINUOUS
 62
     3
100
AcDbCircle
 10
80.5
 20
65.9
 30
0.0
 40
0.5
100
AcDbArc
 50
90.0
 51
180.0
  0
LINE
  5
172
330
1E
100
AcDbEntity
  8
CSLAYER1
  6
CENTER
 62
     4
100
AcDbLine
 10
84.50000000000001
 20
69.631212
 30
0.0
 11
84.50000000000001
 21
60.58969699999995
 31
0.0
  0
ARC
  5
173
330
1E
100
AcDbEntity
  8
CSLAYER1
  6
CONTINUOUS
 62
     3
100
AcDbCircle
 10
108.0
 20
35.4
 30
0.0
 40
3.5
100
AcDbArc
 50
270.0
 51
90.0
  0
LINE
  5
174
330
1E
100
AcDbEntity
  8
CSLAYER1
  6
CENTER
 62
     4
100
AcDbLine
 10
108.82093
 20
35.4
 30
0.0
 11
114.7515189999999
 21
35.4
 31
0.0
  0
LINE
  5
175
330
1E
100
AcDbEntity
  8
CSLAYER1
  6
DOT
 62
     3
100
AcDbLine
 10
2.5
 20
0.5
 30
0.0
 11
142.0
 21
0.5
 31
0.0
  0
LINE
  5
176
330
1E
100
AcDbEntity
  8
CSLAYER1
  6
DOT
 62
     3
100
AcDbLine
 10
142.0
 20
0.5
 30
0.0
 11
142.0
 21
97.5
 31
0.0
  0
LINE
  5
177
330
1E
100
AcDbEntity
  8
CSLAYER1
  6
DOT
 62
     3
100
AcDbLine
 10
142.0
 20
97.5
 30
0.0
 11
2.5
 21
97.5
 31
0.0
  0
LINE
  5
178
330
1E
100
AcDbEntity
  8
CSLAYER1
  6
DOT
 62
     3
100
AcDbLine
 10
2.5
 20
97.5
 30
0.0
 11
2.5
 21
0.5
 31
0.0
  0
LINE
  5
179
330
1E
100
AcDbEntity
  8
CSLAYER1
  6
DOT
 62
     3
100
AcDbLine
 10
72.25
 20
99.50000000000001
 30
0.0
 11
72.25
 21
97.5
 31
0.0
  0
LINE
  5
17A
330
1E
100
AcDbEntity
  8
CSLAYER1
  6
DOT
 62
     3
100
AcDbLine
 10
2.5
 20
49.0
 30
0.0
 11
0.5
 21
49.0
 31
0.0
  0
LINE
  5
17B
330
1E
100
AcDbEntity
  8
CSLAYER1
  6
DOT
 62
     3
100
AcDbLine
 10
144.0
 20
49.0
 30
0.0
 11
142.0
 21
49.0
 31
0.0
  0
TEXT
  5
1DD
330
1E
100
AcDbEntity
  8
CSLAYER1
 62
     4
100
AcDbText
 10
58.0
 20
82.6311495
 30
0.0
 40
1.5
  1
24
 41
1.2
 51
15.0
  7
FX_FONT
 72
     5
 11
61.0
 21
82.6311495
 31
0.0
100
AcDbText
  0
LINE
  5
1DE
330
1E
100
AcDbEntity
  8
CSLAYER1
 62
     4
100
AcDbLine
 10
47.5
 20
82.13114749999995
 30
0.0
 11
71.5
 21
82.13114749999995
 31
0.0
  0
LINE
  5
1DF
330
1E
100
AcDbEntity
  8
CSLAYER1
 62
     4
100
AcDbLine
 10
47.5
 20
82.13114749999995
 30
0.0
 11
48.9488885
 21
82.51937599999996
 31
0.0
  0
LINE
  5
1E0
330
1E
100
AcDbEntity
  8
CSLAYER1
 62
     4
100
AcDbLine
 10
47.5
 20
82.13114749999995
 30
0.0
 11
48.9488885
 21
81.742919
 31
0.0
  0
LINE
  5
1E1
330
1E
100
AcDbEntity
  8
CSLAYER1
 62
     4
100
AcDbLine
 10
71.5
 20
82.13114749999995
 30
0.0
 11
70.05111150000001
 21
82.51937599999996
 31
0.0
  0
LINE
  5
1E2
330
1E
100
AcDbEntity
  8
CSLAYER1
 62
     4
100
AcDbLine
 10
71.5
 20
82.13114749999995
 30
0.0
 11
70.05111150000001
 21
81.742919
 31
0.0
  0
LINE
  5
1E3
330
1E
100
AcDbEntity
  8
CSLAYER1
 62
     4
100
AcDbLine
 10
47.5
 20
67.244722
 30
0.0
 11
47.5
 21
83.1311475
 31
0.0
  0
LINE
  5
1E4
330
1E
100
AcDbEntity
  8
CSLAYER1
 62
     4
100
AcDbLine
 10
71.5
 20
77.05647199999996
 30
0.0
 11
71.5
 21
83.1311475
 31
0.0
  0
TEXT
  5
1E5
330
1E
100
AcDbEntity
  8
CSLAYER1
 62
     4
100
AcDbText
 10
39.487503
 20
60.1500015
 30
0.0
 40
1.5
  1
14.5~16
 50
90.0
 41
1.05
 51
15.0
  7
FX_FONT
 72
     5
 11
39.487503
 21
70.6500015
 31
0.0
100
AcDbText
  0
LINE
  5
1E6
330
1E
100
AcDbEntity
  8
CSLAYER1
 62
     4
100
AcDbLine
 10
63.31517149999999
 20
57.89999999999995
 30
0.0
 11
38.987505
 21
57.89999999999995
 31
0.0
  0
LINE
  5
1E7
330
1E
100
AcDbEntity
  8
CSLAYER1
 62
     4
100
AcDbLine
 10
63.31517149999999
 20
72.9
 30
0.0
 11
38.987505
 21
72.9
 31
0.0
  0
LINE
  5
1E8
330
1E
100
AcDbEntity
  8
CSLAYER1
 62
     4
100
AcDbLine
 10
39.98750499999999
 20
57.89999999999995
 30
0.0
 11
39.98750499999999
 21
72.9
 31
0.0
  0
LINE
  5
1E9
330
1E
100
AcDbEntity
  8
CSLAYER1
 62
     4
100
AcDbLine
 10
39.98750499999999
 20
57.89999999999995
 30
0.0
 11
39.599276
 21
59.3488885
 31
0.0
  0
LINE
  5
1EA
330
1E
100
AcDbEntity
  8
CSLAYER1
 62
     4
100
AcDbLine
 10
39.98750499999999
 20
57.89999999999995
 30
0.0
 11
40.37573350000001
 21
59.3488885
 31
0.0
  0
LINE
  5
1EB
330
1E
100
AcDbEntity
  8
CSLAYER1
 62
     4
100
AcDbLine
 10
39.98750499999999
 20
72.9
 30
0.0
 11
39.599276
 21
71.45111149999995
 31
0.0
  0
LINE
  5
1EC
330
1E
100
AcDbEntity
  8
CSLAYER1
 62
     4
100
AcDbLine
 10
39.98750499999999
 20
72.9
 30
0.0
 11
40.37573350000001
 21
71.45111149999995
 31
0.0
  0
TEXT
  5
1ED
330
1E
100
AcDbEntity
  8
CSLAYER1
 62
     4
100
AcDbText
 10
42.487503
 20
63.1500015
 30
0.0
 40
1.5
  1
(2)
 50
90.0
 41
1.285714285714285
 51
15.0
  7
FX_FONT
 72
     5
 11
42.487503
 21
67.6500015
 31
0.0
100
AcDbText
  0
LINE
  5
1EE
330
1E
100
AcDbEntity
  8
CSLAYER1
 62
     4
100
AcDbLine
 10
46.5
 20
64.40000000000001
 30
0.0
 11
41.987505
 21
64.40000000000001
 31
0.0
  0
LINE
  5
1EF
330
1E
100
AcDbEntity
  8
CSLAYER1
 62
     4
100
AcDbLine
 10
46.5
 20
66.4
 30
0.0
 11
41.987505
 21
66.4
 31
0.0
  0
LINE
  5
1F0
330
1E
100
AcDbEntity
  8
CSLAYER1
 62
     4
100
AcDbLine
 10
42.98750499999999
 20
64.40000000000001
 30
0.0
 11
42.98750499999999
 21
66.4
 31
0.0
  0
LINE
  5
1F1
330
1E
100
AcDbEntity
  8
CSLAYER1
 62
     4
100
AcDbLine
 10
42.98750499999999
 20
61.39999999999995
 30
0.0
 11
42.98750499999999
 21
64.40000000000001
 31
0.0
  0
LINE
  5
1F2
330
1E
100
AcDbEntity
  8
CSLAYER1
 62
     4
100
AcDbLine
 10
42.98750499999999
 20
64.40000000000001
 30
0.0
 11
42.599276
 21
62.9511115
 31
0.0
  0
LINE
  5
1F3
330
1E
100
AcDbEntity
  8
CSLAYER1
 62
     4
100
AcDbLine
 10
42.98750499999999
 20
64.40000000000001
 30
0.0
 11
43.3757335
 21
62.9511115
 31
0.0
  0
LINE
  5
1F4
330
1E
100
AcDbEntity
  8
CSLAYER1
 62
     4
100
AcDbLine
 10
42.98750499999999
 20
66.4
 30
0.0
 11
42.98750499999999
 21
69.40000000000001
 31
0.0
  0
LINE
  5
1F5
330
1E
100
AcDbEntity
  8
CSLAYER1
 62
     4
100
AcDbLine
 10
42.98750499999999
 20
66.4
 30
0.0
 11
42.599276
 21
67.8488885
 31
0.0
  0
LINE
  5
1F6
330
1E
100
AcDbEntity
  8
CSLAYER1
 62
     4
100
AcDbLine
 10
42.98750499999999
 20
66.4
 30
0.0
 11
43.3757335
 21
67.8488885
 31
0.0
  0
TEXT
  5
1F7
330
1E
100
AcDbEntity
  8
CSLAYER1
 62
     4
100
AcDbText
 10
57.38240600000001
 20
59.07186850000001
 30
0.0
 40
1.5
  1
R25
 50
68.52825670186579
 41
1.125000023059837
 51
15.0
  7
FX_FONT
 72
     5
 11
59.02959649999999
 21
63.2595605
 31
0.0
100
AcDbText
  0
LINE
  5
1F8
330
1E
100
AcDbEntity
  8
CSLAYER1
 62
     4
100
AcDbLine
 10
55.1641135
 20
59.63504499999995
 30
0.0
 11
58.8764785
 21
69.07308
 31
0.0
  0
LINE
  5
1F9
330
1E
100
AcDbEntity
  8
CSLAYER1
 62
     4
100
AcDbLine
 10
55.1641135
 20
59.63504499999995
 30
0.0
 11
55.33318349999995
 21
61.1254865
 31
0.0
  0
LINE
  5
1FA
330
1E
100
AcDbEntity
  8
CSLAYER1
 62
     4
100
AcDbLine
 10
55.1641135
 20
59.63504499999995
 30
0.0
 11
56.055753
 21
60.84126999999995
 31
0.0
  0
LINE
  5
1FB
330
1E
100
AcDbEntity
  8
CSLAYER1
  6
CONTINUOUS
 62
     4
100
AcDbLine
 10
70.96942099999996
 20
63.41985199999995
 30
0.0
 11
67.64803899999995
 21
51.02428549999995
 31
0.0
  0
LINE
  5
1FC
330
1E
100
AcDbEntity
  8
CSLAYER1
  6
CONTINUOUS
 62
     4
100
AcDbLine
 10
70.96942099999996
 20
63.41985199999995
 30
0.0
 11
70.96942099999996
 21
61.91985199999995
 31
0.0
  0
LINE
  5
1FD
330
1E
100
AcDbEntity
  8
CSLAYER1
  6
CONTINUOUS
 62
     4
100
AcDbLine
 10
70.96942099999996
 20
63.41985199999995
 30
0.0
 11
70.21942099999995
 21
62.120814
 31
0.0
  0
LINE
  5
1FE
330
1E
100
AcDbEntity
  8
CSLAYER1
  6
CONTINUOUS
 62
     4
100
AcDbLine
 10
67.64803899999995
 20
51.02428549999995
 30
0.0
 11
60.64803900000001
 21
51.02428549999995
 31
0.0
  0
TEXT
  5
1FF
330
1E
100
AcDbEntity
  8
CSLAYER1
 62
     4
100
AcDbText
 10
61.04544849999995
 20
51.52428799999995
 30
0.0
 40
1.5
  1
%%c4.1
 41
1.142857142857132
 51
15.0
  7
FX_FONT
 72
     5
 11
67.04544849999989
 21
51.52428799999995
 31
0.0
100
AcDbText
  0
TEXT
  5
200
330
1E
100
AcDbEntity
  8
CSLAYER1
 62
     4
100
AcDbText
 10
10.8119335
 20
69.07667550000001
 30
0.0
 40
1.5
  1
(0.4)
 41
1.153846153846151
 51
15.0
  7
FX_FONT
 72
     5
 11
18.31193349999998
 21
69.07667550000001
 31
0.0
100
AcDbText
  0
LINE
  5
201
330
1E
100
AcDbEntity
  8
CSLAYER1
 62
     4
100
AcDbLine
 10
15.9267565
 20
68.576672
 30
0.0
 11
16.3267565
 21
68.576672
 31
0.0
  0
LINE
  5
202
330
1E
100
AcDbEntity
  8
CSLAYER1
 62
     4
100
AcDbLine
 10
18.396322
 20
66.10710699999995
 30
0.0
 11
15.2196495
 21
69.283779
 31
0.0
  0
LINE
  5
203
330
1E
100
AcDbEntity
  8
CSLAYER1
 62
     4
100
AcDbLine
 10
18.79632199999999
 20
66.10710699999995
 30
0.0
 11
15.6196495
 21
69.283779
 31
0.0
  0
LINE
  5
204
330
1E
100
AcDbEntity
  8
CSLAYER1
 62
     4
100
AcDbLine
 10
13.19711149999999
 20
68.576672
 30
0.0
 11
15.9267565
 21
68.576672
 31
0.0
  0
LINE
  5
205
330
1E
100
AcDbEntity
  8
CSLAYER1
 62
     4
100
AcDbLine
 10
15.9267565
 20
68.576672
 30
0.0
 11
14.47786749999999
 21
68.964901
 31
0.0
  0
LINE
  5
206
330
1E
100
AcDbEntity
  8
CSLAYER1
 62
     4
100
AcDbLine
 10
15.9267565
 20
68.576672
 30
0.0
 11
14.47786749999999
 21
68.1884435
 31
0.0
  0
LINE
  5
207
330
1E
100
AcDbEntity
  8
CSLAYER1
 62
     4
100
AcDbLine
 10
16.3267565
 20
68.576672
 30
0.0
 11
18.125432
 21
68.576672
 31
0.0
  0
LINE
  5
208
330
1E
100
AcDbEntity
  8
CSLAYER1
 62
     4
100
AcDbLine
 10
16.3267565
 20
68.576672
 30
0.0
 11
17.775645
 21
68.964901
 31
0.0
  0
LINE
  5
209
330
1E
100
AcDbEntity
  8
CSLAYER1
 62
     4
100
AcDbLine
 10
16.3267565
 20
68.576672
 30
0.0
 11
17.775645
 21
68.1884435
 31
0.0
  0
TEXT
  5
20A
330
1E
100
AcDbEntity
  8
CSLAYER1
 62
     4
100
AcDbText
 10
38.07696899999999
 20
35.1031835
 30
0.0
 40
1.5
  1
7 
 50
90.0
 41
1.25
 51
15.0
  7
FX_FONT
 72
     5
 11
38.07696899999999
 21
38.1031835
 31
0.0
100
AcDbText
  0
TEXT
  5
20B
330
1E
100
AcDbEntity
  8
CSLAYER1
 62
     4
100
AcDbText
 10
37.326969
 20
38.1031835
 30
0.0
 40
0.75
  1
  0
 50
90.0
 41
1.607142857142852
 51
15.0
  7
FX_FONT
 72
     5
 11
37.326969
 21
40.35318349999999
 31
0.0
100
AcDbText
  0
TEXT
  5
20C
330
1E
100
AcDbEntity
  8
CSLAYER1
 62
     4
100
AcDbText
 10
38.07696899999999
 20
38.1031835
 30
0.0
 40
0.75
  1
-0.15
 50
90.0
 41
1.071428571428571
 51
15.0
  7
FX_FONT
 72
     5
 11
38.07696899999999
 21
41.8531835
 31
0.0
100
AcDbText
  0
LINE
  5
20D
330
1E
100
AcDbEntity
  8
CSLAYER1
 62
     4
100
AcDbLine
 10
46.5
 20
31.89999999999999
 30
0.0
 11
38.217576
 21
31.89999999999999
 31
0.0
  0
LINE
  5
20E
330
1E
100
AcDbEntity
  8
CSLAYER1
 62
     4
100
AcDbLine
 10
60.5
 20
38.9
 30
0.0
 11
38.217576
 21
38.9
 31
0.0
  0
LINE
  5
20F
330
1E
100
AcDbEntity
  8
CSLAYER1
 62
     4
100
AcDbLine
 10
39.217576
 20
31.89999999999999
 30
0.0
 11
39.217576
 21
38.9
 31
0.0
  0
LINE
  5
210
330
1E
100
AcDbEntity
  8
CSLAYER1
 62
     4
100
AcDbLine
 10
39.217576
 20
31.89999999999999
 30
0.0
 11
38.82934699999999
 21
33.3488885
 31
0.0
  0
LINE
  5
211
330
1E
100
AcDbEntity
  8
CSLAYER1
 62
     4
100
AcDbLine
 10
39.217576
 20
31.89999999999999
 30
0.0
 11
39.6058045
 21
33.3488885
 31
0.0
  0
LINE
  5
212
330
1E
100
AcDbEntity
  8
CSLAYER1
 62
     4
100
AcDbLine
 10
39.217576
 20
38.9
 30
0.0
 11
38.82934699999999
 21
37.45111149999999
 31
0.0
  0
LINE
  5
213
330
1E
100
AcDbEntity
  8
CSLAYER1
 62
     4
100
AcDbLine
 10
39.217576
 20
38.9
 30
0.0
 11
39.6058045
 21
37.45111149999999
 31
0.0
  0
TEXT
  5
214
330
1E
100
AcDbEntity
  8
CSLAYER1
 62
     4
100
AcDbText
 10
42.3342855
 20
24.1568565
 30
0.0
 40
1.5
  1
(5.8)
 50
90.0
 41
1.153846153846153
 51
15.0
  7
FX_FONT
 72
     5
 11
42.3342855
 21
31.6568565
 31
0.0
100
AcDbText
  0
LINE
  5
215
330
1E
100
AcDbEntity
  8
CSLAYER1
 62
     4
100
AcDbLine
 10
58.49818149999995
 20
37.7
 30
0.0
 11
41.74999999999999
 21
37.7
 31
0.0
  0
LINE
  5
216
330
1E
100
AcDbEntity
  8
CSLAYER1
 62
     4
100
AcDbLine
 10
42.75
 20
31.89999999999999
 30
0.0
 11
42.75
 21
37.7
 31
0.0
  0
LINE
  5
217
330
1E
100
AcDbEntity
  8
CSLAYER1
 62
     4
100
AcDbLine
 10
42.75
 20
31.89999999999999
 30
0.0
 11
42.36177150000001
 21
33.3488885
 31
0.0
  0
LINE
  5
218
330
1E
100
AcDbEntity
  8
CSLAYER1
 62
     4
100
AcDbLine
 10
42.75
 20
31.89999999999999
 30
0.0
 11
43.1382285
 21
33.3488885
 31
0.0
  0
LINE
  5
219
330
1E
100
AcDbEntity
  8
CSLAYER1
 62
     4
100
AcDbLine
 10
42.75
 20
37.7
 30
0.0
 11
42.36177150000001
 21
36.2511115
 31
0.0
  0
LINE
  5
21A
330
1E
100
AcDbEntity
  8
CSLAYER1
 62
     4
100
AcDbLine
 10
42.75
 20
37.7
 30
0.0
 11
43.1382285
 21
36.2511115
 31
0.0
  0
TEXT
  5
21B
330
1E
100
AcDbEntity
  8
CSLAYER1
 62
     4
100
AcDbText
 10
65.0
 20
43.7103045
 30
0.0
 40
1.5
  1
10
 41
1.199999999999999
 51
15.0
  7
FX_FONT
 72
     5
 11
68.0
 21
43.7103045
 31
0.0
100
AcDbText
  0
LINE
  5
21C
330
1E
100
AcDbEntity
  8
CSLAYER1
 62
     4
100
AcDbLine
 10
61.5
 20
39.9
 30
0.0
 11
61.5
 21
44.210303
 31
0.0
  0
LINE
  5
21D
330
1E
100
AcDbEntity
  8
CSLAYER1
 62
     4
100
AcDbLine
 10
71.5
 20
42.88714300000001
 30
0.0
 11
71.5
 21
44.210303
 31
0.0
  0
LINE
  5
21E
330
1E
100
AcDbEntity
  8
CSLAYER1
 62
     4
100
AcDbLine
 10
61.5
 20
43.210303
 30
0.0
 11
71.5
 21
43.210303
 31
0.0
  0
LINE
  5
21F
330
1E
100
AcDbEntity
  8
CSLAYER1
 62
     4
100
AcDbLine
 10
61.5
 20
43.210303
 30
0.0
 11
62.94888849999995
 21
43.5985315
 31
0.0
  0
LINE
  5
220
330
1E
100
AcDbEntity
  8
CSLAYER1
 62
     4
100
AcDbLine
 10
61.5
 20
43.210303
 30
0.0
 11
62.94888849999995
 21
42.8220745
 31
0.0
  0
LINE
  5
221
330
1E
100
AcDbEntity
  8
CSLAYER1
 62
     4
100
AcDbLine
 10
71.5
 20
43.210303
 30
0.0
 11
70.05111150000001
 21
43.5985315
 31
0.0
  0
LINE
  5
222
330
1E
100
AcDbEntity
  8
CSLAYER1
 62
     4
100
AcDbLine
 10
71.5
 20
43.210303
 30
0.0
 11
70.05111150000001
 21
42.8220745
 31
0.0
  0
TEXT
  5
223
330
1E
100
AcDbEntity
  8
CSLAYER1
 62
     4
100
AcDbText
 10
48.75
 20
28.0895405
 30
0.0
 40
1.5
  1
切刃部有効13
 41
0.9130434782608698
 51
15.0
  7
FX_FONT
 72
     5
 11
59.25
 21
28.0895405
 31
0.0
100
AcDbText
  0
LINE
  5
224
330
1E
100
AcDbEntity
  8
CSLAYER1
 62
     4
100
AcDbLine
 10
47.5
 20
27.58954099999999
 30
0.0
 11
60.5
 21
27.58954099999999
 31
0.0
  0
LINE
  5
225
330
1E
100
AcDbEntity
  8
CSLAYER1
 62
     4
100
AcDbLine
 10
47.5
 20
27.58954099999999
 30
0.0
 11
48.9488885
 21
27.9777695
 31
0.0
  0
LINE
  5
226
330
1E
100
AcDbEntity
  8
CSLAYER1
 62
     4
100
AcDbLine
 10
47.5
 20
27.58954099999999
 30
0.0
 11
48.9488885
 21
27.20131199999999
 31
0.0
  0
LINE
  5
227
330
1E
100
AcDbEntity
  8
CSLAYER1
 62
     4
100
AcDbLine
 10
60.5
 20
27.58954099999999
 30
0.0
 11
59.05111149999996
 21
27.9777695
 31
0.0
  0
LINE
  5
228
330
1E
100
AcDbEntity
  8
CSLAYER1
 62
     4
100
AcDbLine
 10
60.5
 20
27.58954099999999
 30
0.0
 11
59.05111149999996
 21
27.20131199999999
 31
0.0
  0
LINE
  5
229
330
1E
100
AcDbEntity
  8
CSLAYER1
 62
     4
100
AcDbLine
 10
47.5
 20
30.89999999999999
 30
0.0
 11
47.5
 21
26.58954099999999
 31
0.0
  0
LINE
  5
22A
330
1E
100
AcDbEntity
  8
CSLAYER1
 62
     4
100
AcDbLine
 10
60.5
 20
30.89999999999999
 30
0.0
 11
60.5
 21
26.58954099999999
 31
0.0
  0
TEXT
  5
22B
330
1E
100
AcDbEntity
  8
CSLAYER1
 62
     4
100
AcDbText
 10
25.1513405
 20
12.84079
 30
0.0
 40
1.5
  1
4
 50
90.0
 41
1.5
 51
15.0
  7
FX_FONT
 72
     5
 11
25.1513405
 21
14.34079
 31
0.0
100
AcDbText
  0
LINE
  5
22C
330
1E
100
AcDbEntity
  8
CSLAYER1
 62
     4
100
AcDbLine
 10
25.65133949999999
 20
11.5907895
 30
0.0
 11
25.65133949999999
 21
15.59078949999999
 31
0.0
  0
LINE
  5
22D
330
1E
100
AcDbEntity
  8
CSLAYER1
 62
     4
100
AcDbLine
 10
25.65133949999999
 20
11.5907895
 30
0.0
 11
25.263111
 21
13.039678
 31
0.0
  0
LINE
  5
22E
330
1E
100
AcDbEntity
  8
CSLAYER1
 62
     4
100
AcDbLine
 10
25.65133949999999
 20
11.5907895
 30
0.0
 11
26.0395685
 21
13.039678
 31
0.0
  0
LINE
  5
22F
330
1E
100
AcDbEntity
  8
CSLAYER1
 62
     4
100
AcDbLine
 10
25.65133949999999
 20
15.59078949999999
 30
0.0
 11
25.263111
 21
14.1419005
 31
0.0
  0
LINE
  5
230
330
1E
100
AcDbEntity
  8
CSLAYER1
 62
     4
100
AcDbLine
 10
25.65133949999999
 20
15.59078949999999
 30
0.0
 11
26.0395685
 21
14.1419005
 31
0.0
  0
LINE
  5
231
330
1E
100
AcDbEntity
  8
CSLAYER1
 62
     4
100
AcDbLine
 10
29.22739299999999
 20
11.5907895
 30
0.0
 11
24.6513395
 21
11.5907895
 31
0.0
  0
LINE
  5
232
330
1E
100
AcDbEntity
  8
CSLAYER1
 62
     4
100
AcDbLine
 10
29.22739299999999
 20
15.59078949999999
 30
0.0
 11
24.6513395
 21
15.59078949999999
 31
0.0
  0
ENDSEC
  0
SECTION
  2
OBJECTS
  0
DICTIONARY
  5
C
330
0
100
AcDbDictionary
  3
ACAD_GROUP
350
D
  3
ACAD_LAYOUT
350
19
  3
ACAD_MLINESTYLE
350
16
  3
ACAD_PLOTSETTINGS
350
18
1001
ACAD
1000
TREAT_AS_HARD
1070
     0
1000
TREAT_AS_HARD
1070
     0
1000
TREAT_AS_HARD
1070
     0
  0
DICTIONARY
  5
185
330
1E
100
AcDbDictionary
  3
ACAD_LAYOUTSELFREF
350
237
1001
ACAD
1000
TREAT_AS_HARD
1070
     0
1000
TREAT_AS_HARD
1070
     0
  0
DICTIONARY
  5
183
330
1A
100
AcDbDictionary
  3
ACAD_LAYOUTSELFREF
350
236
1001
ACAD
1000
TREAT_AS_HARD
1070
     0
1000
TREAT_AS_HARD
1070
     0
  0
DICTIONARY
  5
D
102
{ACAD_REACTORS
330
C
102
}
330
C
100
AcDbDictionary
1001
ACAD
1000
TREAT_AS_HARD
1070
     0
1000
TREAT_AS_HARD
1070
     0
1000
TREAT_AS_HARD
1070
     0
  0
DICTIONARY
  5
19
102
{ACAD_REACTORS
330
C
102
}
330
C
100
AcDbDictionary
1001
ACAD
1000
TREAT_AS_HARD
1070
     0
1000
TREAT_AS_HARD
1070
     0
1000
TREAT_AS_HARD
1070
     0
  0
DICTIONARY
  5
16
102
{ACAD_REACTORS
330
C
102
}
330
C
100
AcDbDictionary
  3
STANDARD
350
17
1001
ACAD
1000
TREAT_AS_HARD
1070
     0
1000
TREAT_AS_HARD
1070
     0
1000
TREAT_AS_HARD
1070
     0
  0
DICTIONARY
  5
18
102
{ACAD_REACTORS
330
C
102
}
330
C
100
AcDbDictionary
1001
ACAD
1000
TREAT_AS_HARD
1070
     0
1000
TREAT_AS_HARD
1070
     0
1000
TREAT_AS_HARD
1070
     0
  0
XRECORD
  5
237
102
{ACAD_REACTORS
330
185
102
}
330
185
100
AcDbXrecord
340
1E
  0
XRECORD
  5
236
102
{ACAD_REACTORS
330
183
102
}
330
183
100
AcDbXrecord
340
1A
  0
MLINESTYLE
  5
17
102
{ACAD_REACTORS
330
16
102
}
330
16
100
AcDbMlineStyle
  2
STANDARD
 70
     0
  3

 62
   256
 51
90.0
 52
90.0
 71
     2
 49
0.5
 62
   256
  6
BYLAYER
 49
-0.5
 62
   256
  6
BYLAYER
  0
ENDSEC
  0
EOF
