  0
SECTION
  2
HEADER
  9
$ACADVER
  1
AC1012
  9
$DWGCODEPAGE
  3
dos932
  9
$INSBASE
 10
0.0
 20
0.0
 30
0.0
  9
$EXTMIN
 10
0.4894416100455601
 20
0.4902653820932415
 30
-0.0000000349181948
  9
$EXTMAX
 10
144.0134587653603
 20
99.50454747945139
 30
0.0000000814935747
  9
$LIMMIN
 10
0.0
 20
0.0
  9
$LIMMAX
 10
297.0
 20
210.0
  9
$ORTHOMODE
 70
     0
  9
$REGENMODE
 70
     1
  9
$FILLMODE
 70
     1
  9
$QTEXTMODE
 70
     0
  9
$MIRRTEXT
 70
     1
  9
$DRAGMODE
 70
     2
  9
$LTSCALE
 40
15.0
  9
$OSMODE
 70
    37
  9
$ATTMODE
 70
     1
  9
$TEXTSIZE
 40
0.2
  9
$TRACEWID
 40
0.05
  9
$TEXTSTYLE
  7
GOTHIC
  9
$CLAYER
  8
CSLAYER1
  9
$CELTYPE
  6
BYLAYER
  9
$CECOLOR
 62
   256
  9
$CELTSCALE
 40
1.0
  9
$DELOBJ
 70
     1
  9
$DISPSILH
 70
     0
  9
$DIMSCALE
 40
1.0
  9
$DIMASZ
 40
0.18
  9
$DIMEXO
 40
0.0625
  9
$DIMDLI
 40
0.38
  9
$DIMRND
 40
0.0
  9
$DIMDLE
 40
0.0
  9
$DIMEXE
 40
0.18
  9
$DIMTP
 40
0.0
  9
$DIMTM
 40
0.0
  9
$DIMTXT
 40
0.18
  9
$DIMCEN
 40
0.09
  9
$DIMTSZ
 40
0.0
  9
$DIMTOL
 70
     0
  9
$DIMLIM
 70
     0
  9
$DIMTIH
 70
     1
  9
$DIMTOH
 70
     1
  9
$DIMSE1
 70
     0
  9
$DIMSE2
 70
     0
  9
$DIMTAD
 70
     0
  9
$DIMZIN
 70
     0
  9
$DIMBLK
  1

  9
$DIMASO
 70
     1
  9
$DIMSHO
 70
     1
  9
$DIMPOST
  1

  9
$DIMAPOST
  1

  9
$DIMALT
 70
     0
  9
$DIMALTD
 70
     2
  9
$DIMALTF
 40
25.4
  9
$DIMLFAC
 40
1.0
  9
$DIMTOFL
 70
     0
  9
$DIMTVP
 40
0.0
  9
$DIMTIX
 70
     0
  9
$DIMSOXD
 70
     0
  9
$DIMSAH
 70
     0
  9
$DIMBLK1
  1

  9
$DIMBLK2
  1

  9
$DIMSTYLE
  2
STANDARD
  9
$DIMCLRD
 70
     0
  9
$DIMCLRE
 70
     0
  9
$DIMCLRT
 70
     0
  9
$DIMTFAC
 40
1.0
  9
$DIMGAP
 40
0.09
  9
$DIMJUST
 70
     0
  9
$DIMSD1
 70
     0
  9
$DIMSD2
 70
     0
  9
$DIMTOLJ
 70
     1
  9
$DIMTZIN
 70
     0
  9
$DIMALTZ
 70
     0
  9
$DIMALTTZ
 70
     0
  9
$DIMFIT
 70
     3
  9
$DIMUPT
 70
     0
  9
$DIMUNIT
 70
     2
  9
$DIMDEC
 70
     4
  9
$DIMTDEC
 70
     4
  9
$DIMALTU
 70
     2
  9
$DIMALTTD
 70
     2
  9
$DIMTXSTY
  7
STANDARD
  9
$DIMAUNIT
 70
     0
  9
$LUNITS
 70
     2
  9
$LUPREC
 70
     4
  9
$SKETCHINC
 40
0.1
  9
$FILLETRAD
 40
0.0
  9
$AUNITS
 70
     0
  9
$AUPREC
 70
     0
  9
$MENU
  1
ACAD
  9
$ELEVATION
 40
0.0
  9
$PELEVATION
 40
0.0
  9
$THICKNESS
 40
0.0
  9
$LIMCHECK
 70
     0
  9
$BLIPMODE
 70
     1
  9
$CHAMFERA
 40
0.0
  9
$CHAMFERB
 40
0.0
  9
$CHAMFERC
 40
0.0
  9
$CHAMFERD
 40
0.0
  9
$SKPOLY
 70
     0
  9
$TDCREATE
 40
2453476.999999999
  9
$TDUPDATE
 40
2453575.542682882
  9
$TDINDWG
 40
0.0012242245
  9
$TDUSRTIMER
 40
0.0012239931
  9
$USRTIMER
 70
     1
  9
$ANGBASE
 50
0.0
  9
$ANGDIR
 70
     0
  9
$PDMODE
 70
     0
  9
$PDSIZE
 40
0.0
  9
$PLINEWID
 40
0.0
  9
$COORDS
 70
     0
  9
$SPLFRAME
 70
     0
  9
$SPLINETYPE
 70
     6
  9
$SPLINESEGS
 70
     8
  9
$ATTDIA
 70
     0
  9
$ATTREQ
 70
     1
  9
$HANDLING
 70
 22529
  9
$HANDSEED
  5
1A6
  9
$SURFTAB1
 70
     6
  9
$SURFTAB2
 70
     6
  9
$SURFTYPE
 70
     6
  9
$SURFU
 70
     6
  9
$SURFV
 70
     6
  9
$UCSNAME
  2

  9
$UCSORG
 10
0.0
 20
0.0
 30
0.0
  9
$UCSXDIR
 10
1.0
 20
0.0
 30
0.0
  9
$UCSYDIR
 10
0.0
 20
1.0
 30
0.0
  9
$PUCSNAME
  2

  9
$PUCSORG
 10
0.0
 20
0.0
 30
0.0
  9
$PUCSXDIR
 10
1.0
 20
0.0
 30
0.0
  9
$PUCSYDIR
 10
0.0
 20
1.0
 30
0.0
  9
$USERI1
 70
     0
  9
$USERI2
 70
     0
  9
$USERI3
 70
     0
  9
$USERI4
 70
     0
  9
$USERI5
 70
     0
  9
$USERR1
 40
0.0
  9
$USERR2
 40
0.0
  9
$USERR3
 40
0.0
  9
$USERR4
 40
0.0
  9
$USERR5
 40
0.0
  9
$WORLDVIEW
 70
     1
  9
$SHADEDGE
 70
     3
  9
$SHADEDIF
 70
    70
  9
$TILEMODE
 70
     1
  9
$MAXACTVP
 70
    64
  9
$PINSBASE
 10
0.0
 20
0.0
 30
0.0
  9
$PLIMCHECK
 70
     0
  9
$PEXTMIN
 10
1.000000000000000E+20
 20
1.000000000000000E+20
 30
1.000000000000000E+20
  9
$PEXTMAX
 10
-1.000000000000000E+20
 20
-1.000000000000000E+20
 30
-1.000000000000000E+20
  9
$PLIMMIN
 10
0.0
 20
0.0
  9
$PLIMMAX
 10
12.0
 20
9.0
  9
$UNITMODE
 70
     0
  9
$VISRETAIN
 70
     1
  9
$PLINEGEN
 70
     0
  9
$PSLTSCALE
 70
     1
  9
$TREEDEPTH
 70
  3020
  9
$PICKSTYLE
 70
     3
  9
$CMLSTYLE
  2
STANDARD
  9
$CMLJUST
 70
     0
  9
$CMLSCALE
 40
1.0
  9
$SAVEIMAGES
 70
     1
  0
ENDSEC
  0
SECTION
  2
CLASSES
  0
CLASS
  1
ACDBDICTIONARYWDFLT
  2
AcDbDictionaryWithDefault
  3
AutoCAD 2000
 90
    32768
280
     0
281
     0
  0
CLASS
  1
ACDBPLACEHOLDER
  2
AcDbPlaceHolder
  3
AutoCAD 2000
 90
    32768
280
     0
281
     0
  0
CLASS
  1
LAYOUT
  2
AcDbLayout
  3
AutoCAD 2000
 90
    32768
280
     0
281
     0
  0
CLASS
  1
DICTIONARYVAR
  2
AcDbDictionaryVar
  3
AutoCAD 2000
 90
    32768
280
     0
281
     0
  0
CLASS
  1
LONG_TRANSACTION
  2
AcDbLongTransaction
  3
AutoCAD 2000
 90
    32768
280
     0
281
     0
  0
CLASS
  1
LWPOLYLINE
  2
AcDbPolyline
  3
AutoCAD 2000
 90
    32768
280
     0
281
     1
  0
CLASS
  1
HATCH
  2
AcDbHatch
  3
AutoCAD 2000
 90
    32768
280
     0
281
     1
  0
CLASS
  1
XRECORD
  2
AcDbXrecord
  3
AutoCAD 2000
 90
    32768
280
     0
281
     0
  0
CLASS
  1
LONG_TRANSACTION
  2
AcDbLongTransaction
  3
AutoCAD 2000
 90
    32768
280
     0
281
     0
  0
CLASS
  1
LWPOLYLINE
  2
AcDbPolyline
  3
AutoCAD 2000
 90
    32768
280
     0
281
     1
  0
CLASS
  1
HATCH
  2
AcDbHatch
  3
AutoCAD 2000
 90
    32768
280
     0
281
     1
  0
CLASS
  1
XRECORD
  2
AcDbXrecord
  3
AutoCAD 2000
 90
    32768
280
     0
281
     0
  0
CLASS
  1
LONG_TRANSACTION
  2
AcDbLongTransaction
  3
AutoCAD 2000
 90
    32768
280
     0
281
     0
  0
CLASS
  1
LWPOLYLINE
  2
AcDbPolyline
  3
AutoCAD 2000
 90
    32768
280
     0
281
     1
  0
CLASS
  1
HATCH
  2
AcDbHatch
  3
AutoCAD 2000
 90
    32768
280
     0
281
     1
  0
CLASS
  1
XRECORD
  2
AcDbXrecord
  3
AutoCAD 2000
 90
    32768
280
     0
281
     0
  0
ENDSEC
  0
SECTION
  2
TABLES
  0
TABLE
  2
VPORT
  5
8
330
0
100
AcDbSymbolTable
 70
     2
  0
VPORT
  5
1A3
330
8
100
AcDbSymbolTableRecord
100
AcDbViewportTableRecord
  2
*ACTIVE
 70
     0
 10
0.0
 20
0.0
 11
1.0
 21
1.0
 12
72.25145018770297
 22
49.99740643077231
 13
0.0
 23
0.0
 14
1.0
 24
1.0
 15
0.0
 25
0.0
 16
0.0
 26
0.0
 36
1.0
 17
0.0
 27
0.0
 37
0.0
 40
99.73264448258687
 41
1.458837772397094
 42
50.0
 43
0.0
 44
0.0
 50
0.0
 51
0.0
 71
     0
 72
   100
 73
     1
 74
     1
 75
     0
 76
     0
 77
     0
 78
     0
  0
ENDTAB
  0
TABLE
  2
LTYPE
  5
5
330
0
100
AcDbSymbolTable
 70
     3
  0
LTYPE
  5
13
330
5
100
AcDbSymbolTableRecord
100
AcDbLinetypeTableRecord
  2
BYBLOCK
 70
     0
  3

 72
    65
 73
     0
 40
0.0
  0
LTYPE
  5
14
330
5
100
AcDbSymbolTableRecord
100
AcDbLinetypeTableRecord
  2
BYLAYER
 70
     0
  3

 72
    65
 73
     0
 40
0.0
  0
LTYPE
  5
15
330
5
100
AcDbSymbolTableRecord
100
AcDbLinetypeTableRecord
  2
CONTINUOUS
 70
     0
  3
Solid line
 72
    65
 73
     0
 40
0.0
  0
LTYPE
  5
25
330
5
100
AcDbSymbolTableRecord
100
AcDbLinetypeTableRecord
  2
DOT
 70
     0
  3
...............................................
 72
    65
 73
     2
 40
0.25
 49
0.0
 74
     0
 49
-0.25
 74
     0
  0
LTYPE
  5
28
330
5
100
AcDbSymbolTableRecord
100
AcDbLinetypeTableRecord
  2
CENTER
 70
     0
  3
____ _ ____ _ ____ _ ____ _ ____ _ ____ _ ____ 
 72
    65
 73
     4
 40
2.0
 49
1.25
 74
     0
 49
-0.25
 74
     0
 49
0.25
 74
     0
 49
-0.25
 74
     0
  0
ENDTAB
  0
TABLE
  2
LAYER
  5
2
330
0
100
AcDbSymbolTable
 70
     3
  0
LAYER
  5
10
330
2
100
AcDbSymbolTableRecord
100
AcDbLayerTableRecord
  2
0
 70
     0
 62
     7
  6
CONTINUOUS
  0
LAYER
  5
22
330
2
100
AcDbSymbolTableRecord
100
AcDbLayerTableRecord
  2
CSLAYER1
 70
     0
 62
     7
  6
CONTINUOUS
  0
LAYER
  5
12E
330
2
100
AcDbSymbolTableRecord
100
AcDbLayerTableRecord
  2
DEFPOINTS
 70
     0
 62
     7
  6
CONTINUOUS
  0
ENDTAB
  0
TABLE
  2
STYLE
  5
3
330
0
100
AcDbSymbolTable
 70
     3
  0
STYLE
  5
11
330
3
100
AcDbSymbolTableRecord
100
AcDbTextStyleTableRecord
  2
STANDARD
 70
     0
 40
0.0
 41
1.0
 50
0.0
 71
     0
 42
0.2
  3
txt
  4
extfont.shx
  0
STYLE
  5
3A
330
3
100
AcDbSymbolTableRecord
100
AcDbTextStyleTableRecord
  2
FX_FONT
 70
     0
 40
1.0
 41
1.0
 50
0.0
 71
     0
 42
1.0
  3
monotxt
  4
bigfont
  0
STYLE
  5
126
330
3
100
AcDbSymbolTableRecord
100
AcDbTextStyleTableRecord
  2
GOTHIC
 70
     0
 40
0.0
 41
1.0
 50
0.0
 71
     0
 42
0.2
  3
txt.shx
  4
extfont.shx
  0
ENDTAB
  0
TABLE
  2
VIEW
  5
6
330
0
100
AcDbSymbolTable
 70
     0
  0
ENDTAB
  0
TABLE
  2
UCS
  5
7
330
0
100
AcDbSymbolTable
 70
     0
  0
ENDTAB
  0
TABLE
  2
APPID
  5
9
330
0
100
AcDbSymbolTable
 70
     1
  0
APPID
  5
12
330
9
100
AcDbSymbolTableRecord
100
AcDbRegAppTableRecord
  2
ACAD
 70
     0
  0
ENDTAB
  0
TABLE
  2
DIMSTYLE
  5
A
330
0
100
AcDbSymbolTable
 70
     1
  0
DIMSTYLE
105
123
330
A
100
AcDbSymbolTableRecord
100
AcDbDimStyleTableRecord
  2
STANDARD
 70
     0
  3

  4

  5

  6

  7

 40
1.0
 41
0.18
 42
0.0625
 43
0.38
 44
0.18
 45
0.0
 46
0.0
 47
0.0
 48
0.0
140
0.18
141
0.09
142
0.0
143
25.4
144
1.0
145
0.0
146
1.0
147
0.09
 71
     0
 72
     0
 73
     1
 74
     1
 75
     0
 76
     0
 77
     0
 78
     0
170
     0
171
     2
172
     0
173
     0
174
     0
175
     0
176
     0
177
     0
178
     0
270
     2
271
     4
272
     4
273
     2
274
     2
340
11
275
     0
280
     0
281
     0
282
     0
283
     1
284
     0
285
     0
286
     0
287
     3
288
     0
  0
ENDTAB
  0
TABLE
  2
BLOCK_RECORD
  5
1
330
0
100
AcDbSymbolTable
 70
    14
  0
BLOCK_RECORD
  5
1E
102
{ACAD_XDICTIONARY
360
12C
102
}
330
1
100
AcDbSymbolTableRecord
100
AcDbBlockTableRecord
  2
*MODEL_SPACE
  0
BLOCK_RECORD
  5
1A
102
{ACAD_XDICTIONARY
360
12A
102
}
330
1
100
AcDbSymbolTableRecord
100
AcDbBlockTableRecord
  2
*PAPER_SPACE
  0
BLOCK_RECORD
  5
3F
330
1
100
AcDbSymbolTableRecord
100
AcDbBlockTableRecord
  2
FXDIM0000
  0
BLOCK_RECORD
  5
47
330
1
100
AcDbSymbolTableRecord
100
AcDbBlockTableRecord
  2
*D1
  0
BLOCK_RECORD
  5
52
330
1
100
AcDbSymbolTableRecord
100
AcDbBlockTableRecord
  2
*D2
  0
BLOCK_RECORD
  5
5D
330
1
100
AcDbSymbolTableRecord
100
AcDbBlockTableRecord
  2
*D3
  0
BLOCK_RECORD
  5
6A
330
1
100
AcDbSymbolTableRecord
100
AcDbBlockTableRecord
  2
FXDIM0001
  0
BLOCK_RECORD
  5
74
330
1
100
AcDbSymbolTableRecord
100
AcDbBlockTableRecord
  2
FXDIM0002
  0
BLOCK_RECORD
  5
7E
330
1
100
AcDbSymbolTableRecord
100
AcDbBlockTableRecord
  2
*D6
  0
BLOCK_RECORD
  5
87
330
1
100
AcDbSymbolTableRecord
100
AcDbBlockTableRecord
  2
*D7
  0
BLOCK_RECORD
  5
92
330
1
100
AcDbSymbolTableRecord
100
AcDbBlockTableRecord
  2
*D8
  0
BLOCK_RECORD
  5
9D
330
1
100
AcDbSymbolTableRecord
100
AcDbBlockTableRecord
  2
*D9
  0
BLOCK_RECORD
  5
A7
330
1
100
AcDbSymbolTableRecord
100
AcDbBlockTableRecord
  2
*D10
  0
BLOCK_RECORD
  5
B1
330
1
100
AcDbSymbolTableRecord
100
AcDbBlockTableRecord
  2
*D11
  0
BLOCK_RECORD
  5
12F
330
1
100
AcDbSymbolTableRecord
100
AcDbBlockTableRecord
  2
*D12
  0
BLOCK_RECORD
  5
13D
330
1
100
AcDbSymbolTableRecord
100
AcDbBlockTableRecord
  2
*D13
  0
ENDTAB
  0
ENDSEC
  0
SECTION
  2
BLOCKS
  0
BLOCK
  5
1F
330
1E
100
AcDbEntity
  8
0
100
AcDbBlockBegin
  2
*MODEL_SPACE
 70
     0
 10
0.0
 20
0.0
 30
0.0
  3
*MODEL_SPACE
  1

  0
ENDBLK
  5
20
330
1E
100
AcDbEntity
  8
0
100
AcDbBlockEnd
  0
BLOCK
  5
1B
330
1A
100
AcDbEntity
 67
     1
  8
0
100
AcDbBlockBegin
  2
*PAPER_SPACE
 70
     0
 10
0.0
 20
0.0
 30
0.0
  3
*PAPER_SPACE
  1

  0
ENDBLK
  5
1C
330
1A
100
AcDbEntity
 67
     1
  8
0
100
AcDbBlockEnd
  0
BLOCK
  5
40
330
3F
100
AcDbEntity
  8
0
100
AcDbBlockBegin
  2
FXDIM0000
 70
     0
 10
0.0
 20
0.0
 30
0.0
  3
FXDIM0000
  1

  0
LINE
  5
41
330
3F
100
AcDbEntity
  8
CSLAYER1
  6
CONTINUOUS
 62
     4
100
AcDbLine
 10
150.683283
 20
134.079151
 30
0.0
 11
141.573152
 21
100.07968
 31
0.0
  0
LINE
  5
42
330
3F
100
AcDbEntity
  8
CSLAYER1
  6
CONTINUOUS
 62
     4
100
AcDbLine
 10
150.683283
 20
134.079151
 30
0.0
 11
150.683283
 21
131.079151
 31
0.0
  0
LINE
  5
43
330
3F
100
AcDbEntity
  8
CSLAYER1
  6
CONTINUOUS
 62
     4
100
AcDbLine
 10
150.683283
 20
134.079151
 30
0.0
 11
149.183283
 21
131.481074
 31
0.0
  0
LINE
  5
44
330
3F
100
AcDbEntity
  8
CSLAYER1
  6
CONTINUOUS
 62
     4
100
AcDbLine
 10
141.573152
 20
100.07968
 30
0.0
 11
127.573152
 21
100.07968
 31
0.0
  0
TEXT
  5
45
330
3F
100
AcDbEntity
  8
CSLAYER1
 62
     4
100
AcDbText
 10
128.5731509999999
 20
101.0796809999999
 30
0.0
 40
3.0
  1
%%c4.1
 41
1.142857142857151
 51
15.0
  7
FX_FONT
 72
     5
 11
140.573151
 21
101.0796809999999
 31
0.0
100
AcDbText
  0
ENDBLK
  5
46
330
3F
100
AcDbEntity
  8
0
100
AcDbBlockEnd
  0
BLOCK
  5
48
330
47
100
AcDbEntity
  8
0
100
AcDbBlockBegin
  2
*D1
 70
     1
 10
0.0
 20
0.0
 30
0.0
  3
*D1
  1

  0
TEXT
  5
49
330
47
100
AcDbEntity
  8
CSLAYER1
 62
     4
100
AcDbText
 10
84.513443
 20
130.4999999999999
 30
0.0
 40
3.0
  1
20~21
 50
90.0
 41
1.111111111111117
 51
15.0
  7
FX_FONT
 72
     5
 11
84.513443
 21
145.5
 31
0.0
100
AcDbText
  0
LINE
  5
4A
330
47
100
AcDbEntity
  8
CSLAYER1
  6
CONTINUOUS
 62
     4
100
AcDbLine
 10
108.882007
 20
118.0
 30
0.0
 11
84.513435
 21
118.0
 31
0.0
  0
LINE
  5
4B
330
47
100
AcDbEntity
  8
CSLAYER1
  6
CONTINUOUS
 62
     4
100
AcDbLine
 10
108.882007
 20
158.0
 30
0.0
 11
84.513435
 21
158.0
 31
0.0
  0
LINE
  5
4C
330
47
100
AcDbEntity
  8
CSLAYER1
  6
CONTINUOUS
 62
     4
100
AcDbLine
 10
85.51343499999999
 20
118.0
 30
0.0
 11
85.51343499999999
 21
158.0
 31
0.0
  0
LINE
  5
4D
330
47
100
AcDbEntity
  8
CSLAYER1
  6
CONTINUOUS
 62
     4
100
AcDbLine
 10
85.51343499999999
 20
118.0
 30
0.0
 11
84.73697800000001
 21
120.897777
 31
0.0
  0
LINE
  5
4E
330
47
100
AcDbEntity
  8
CSLAYER1
  6
CONTINUOUS
 62
     4
100
AcDbLine
 10
85.51343499999999
 20
118.0
 30
0.0
 11
86.289893
 21
120.897777
 31
0.0
  0
LINE
  5
4F
330
47
100
AcDbEntity
  8
CSLAYER1
  6
CONTINUOUS
 62
     4
100
AcDbLine
 10
85.51343499999999
 20
158.0
 30
0.0
 11
84.73697800000001
 21
155.102223
 31
0.0
  0
LINE
  5
50
330
47
100
AcDbEntity
  8
CSLAYER1
  6
CONTINUOUS
 62
     4
100
AcDbLine
 10
85.51343499999999
 20
158.0
 30
0.0
 11
86.289893
 21
155.102223
 31
0.0
  0
ENDBLK
  5
51
330
47
100
AcDbEntity
  8
0
100
AcDbBlockEnd
  0
BLOCK
  5
53
330
52
100
AcDbEntity
  8
0
100
AcDbBlockBegin
  2
*D2
 70
     1
 10
0.0
 20
0.0
 30
0.0
  3
*D2
  1

  0
TEXT
  5
54
330
52
100
AcDbEntity
  8
CSLAYER1
 62
     4
100
AcDbText
 10
90.51344300000002
 20
135.0
 30
0.0
 40
3.0
  1
10
 50
90.0
 41
1.2
 51
15.0
  7
FX_FONT
 72
     5
 11
90.51344300000002
 21
141.0
 31
0.0
100
AcDbText
  0
LINE
  5
55
330
52
100
AcDbEntity
  8
CSLAYER1
  6
CONTINUOUS
 62
     4
100
AcDbLine
 10
98.882007
 20
128.0
 30
0.0
 11
90.51343499999999
 21
128.0
 31
0.0
  0
LINE
  5
56
330
52
100
AcDbEntity
  8
CSLAYER1
  6
CONTINUOUS
 62
     4
100
AcDbLine
 10
98.882007
 20
148.0
 30
0.0
 11
90.51343499999999
 21
148.0
 31
0.0
  0
LINE
  5
57
330
52
100
AcDbEntity
  8
CSLAYER1
  6
CONTINUOUS
 62
     4
100
AcDbLine
 10
91.51343500000001
 20
128.0
 30
0.0
 11
91.51343500000001
 21
148.0
 31
0.0
  0
LINE
  5
58
330
52
100
AcDbEntity
  8
CSLAYER1
  6
CONTINUOUS
 62
     4
100
AcDbLine
 10
91.51343500000001
 20
128.0
 30
0.0
 11
90.73697799999999
 21
130.897777
 31
0.0
  0
LINE
  5
59
330
52
100
AcDbEntity
  8
CSLAYER1
  6
CONTINUOUS
 62
     4
100
AcDbLine
 10
91.51343500000001
 20
128.0
 30
0.0
 11
92.289893
 21
130.897777
 31
0.0
  0
LINE
  5
5A
330
52
100
AcDbEntity
  8
CSLAYER1
  6
CONTINUOUS
 62
     4
100
AcDbLine
 10
91.51343500000001
 20
148.0
 30
0.0
 11
90.73697799999999
 21
145.102223
 31
0.0
  0
LINE
  5
5B
330
52
100
AcDbEntity
  8
CSLAYER1
  6
CONTINUOUS
 62
     4
100
AcDbLine
 10
91.51343500000001
 20
148.0
 30
0.0
 11
92.289893
 21
145.102223
 31
0.0
  0
ENDBLK
  5
5C
330
52
100
AcDbEntity
  8
0
100
AcDbBlockEnd
  0
BLOCK
  5
5E
330
5D
100
AcDbEntity
  8
0
100
AcDbBlockBegin
  2
*D3
 70
     1
 10
0.0
 20
0.0
 30
0.0
  3
*D3
  1

  0
TEXT
  5
5F
330
5D
100
AcDbEntity
  8
CSLAYER1
 62
     4
100
AcDbText
 10
90.19999699999999
 20
77.031212
 30
0.0
 40
3.0
  1
9  
 50
90.0
 41
1.363636363636363
 51
15.0
  7
FX_FONT
 72
     5
 11
90.19999699999999
 21
86.031212
 31
0.0
100
AcDbText
  0
TEXT
  5
60
330
5D
100
AcDbEntity
  8
CSLAYER1
 62
     4
100
AcDbText
 10
88.69999699999999
 20
86.031212
 30
0.0
 40
1.5
  1
  0
 50
90.0
 41
1.607142857142857
 51
15.0
  7
FX_FONT
 72
     5
 11
88.69999699999999
 21
90.53121199999999
 31
0.0
100
AcDbText
  0
TEXT
  5
61
330
5D
100
AcDbEntity
  8
CSLAYER1
 62
     4
100
AcDbText
 10
90.19999699999999
 20
86.031212
 30
0.0
 40
1.5
  1
-0.15
 50
90.0
 41
1.071428571428571
 51
15.0
  7
FX_FONT
 72
     5
 11
90.19999699999999
 21
93.531212
 31
0.0
100
AcDbText
  0
LINE
  5
62
330
5D
100
AcDbEntity
  8
CSLAYER1
  6
CONTINUOUS
 62
     4
100
AcDbLine
 10
98.882007
 20
69.0
 30
0.0
 11
90.411435
 21
69.0
 31
0.0
  0
LINE
  5
63
330
5D
100
AcDbEntity
  8
CSLAYER1
  6
CONTINUOUS
 62
     4
100
AcDbLine
 10
98.882007
 20
87.0
 30
0.0
 11
90.411435
 21
87.0
 31
0.0
  0
LINE
  5
64
330
5D
100
AcDbEntity
  8
CSLAYER1
  6
CONTINUOUS
 62
     4
100
AcDbLine
 10
91.411435
 20
69.0
 30
0.0
 11
91.411435
 21
87.0
 31
0.0
  0
LINE
  5
65
330
5D
100
AcDbEntity
  8
CSLAYER1
  6
CONTINUOUS
 62
     4
100
AcDbLine
 10
91.411435
 20
69.0
 30
0.0
 11
90.634978
 21
71.897777
 31
0.0
  0
LINE
  5
66
330
5D
100
AcDbEntity
  8
CSLAYER1
  6
CONTINUOUS
 62
     4
100
AcDbLine
 10
91.411435
 20
69.0
 30
0.0
 11
92.187893
 21
71.897777
 31
0.0
  0
LINE
  5
67
330
5D
100
AcDbEntity
  8
CSLAYER1
  6
CONTINUOUS
 62
     4
100
AcDbLine
 10
91.411435
 20
87.0
 30
0.0
 11
90.634978
 21
84.10222299999999
 31
0.0
  0
LINE
  5
68
330
5D
100
AcDbEntity
  8
CSLAYER1
  6
CONTINUOUS
 62
     4
100
AcDbLine
 10
91.411435
 20
87.0
 30
0.0
 11
92.187893
 21
84.10222299999999
 31
0.0
  0
ENDBLK
  5
69
330
5D
100
AcDbEntity
  8
0
100
AcDbBlockEnd
  0
BLOCK
  5
6B
330
6A
100
AcDbEntity
  8
0
100
AcDbBlockBegin
  2
FXDIM0001
 70
     0
 10
0.0
 20
0.0
 30
0.0
  3
FXDIM0001
  1

  0
LINE
  5
6C
330
6A
100
AcDbEntity
  8
CSLAYER1
  6
CONTINUOUS
 62
     4
100
AcDbLine
 10
162.5999999999999
 20
87.0
 30
0.0
 11
164.5999999999999
 21
90.464102
 31
0.0
  0
LINE
  5
6D
330
6A
100
AcDbEntity
  8
CSLAYER1
  6
CONTINUOUS
 62
     4
100
AcDbLine
 10
160.5999999999999
 20
90.464102
 30
0.0
 11
172.5999999999999
 21
90.464102
 31
0.0
  0
LINE
  5
6E
330
6A
100
AcDbEntity
  8
CSLAYER1
  6
CONTINUOUS
 62
     4
100
AcDbLine
 10
160.5999999999999
 20
90.464102
 30
0.0
 11
162.5999999999999
 21
87.0
 31
0.0
  0
LINE
  5
6F
330
6A
100
AcDbEntity
  8
CSLAYER1
  6
CONTINUOUS
 62
     4
100
AcDbLine
 10
166.5999999999999
 20
87.0
 30
0.0
 11
168.5999999999999
 21
90.464102
 31
0.0
  0
LINE
  5
70
330
6A
100
AcDbEntity
  8
CSLAYER1
  6
CONTINUOUS
 62
     4
100
AcDbLine
 10
164.5999999999999
 20
90.464102
 30
0.0
 11
166.5999999999999
 21
87.0
 31
0.0
  0
LINE
  5
71
330
6A
100
AcDbEntity
  8
CSLAYER1
  6
CONTINUOUS
 62
     4
100
AcDbLine
 10
170.5999999999999
 20
87.0
 30
0.0
 11
172.5999999999999
 21
90.464102
 31
0.0
  0
LINE
  5
72
330
6A
100
AcDbEntity
  8
CSLAYER1
  6
CONTINUOUS
 62
     4
100
AcDbLine
 10
168.5999999999999
 20
90.464102
 30
0.0
 11
170.5999999999999
 21
87.0
 31
0.0
  0
ENDBLK
  5
73
330
6A
100
AcDbEntity
  8
0
100
AcDbBlockEnd
  0
BLOCK
  5
75
330
74
100
AcDbEntity
  8
0
100
AcDbBlockBegin
  2
FXDIM0002
 70
     0
 10
0.0
 20
0.0
 30
0.0
  3
FXDIM0002
  1

  0
LINE
  5
76
330
74
100
AcDbEntity
  8
CSLAYER1
  6
CONTINUOUS
 62
     4
100
AcDbLine
 10
164.4
 20
69.0
 30
0.0
 11
162.4
 21
65.53589800000001
 31
0.0
  0
LINE
  5
77
330
74
100
AcDbEntity
  8
CSLAYER1
  6
CONTINUOUS
 62
     4
100
AcDbLine
 10
162.4
 20
65.53589800000001
 30
0.0
 11
174.3999999999999
 21
65.53589800000001
 31
0.0
  0
LINE
  5
78
330
74
100
AcDbEntity
  8
CSLAYER1
  6
CONTINUOUS
 62
     4
100
AcDbLine
 10
166.4
 20
65.53589800000001
 30
0.0
 11
164.4
 21
69.0
 31
0.0
  0
LINE
  5
79
330
74
100
AcDbEntity
  8
CSLAYER1
  6
CONTINUOUS
 62
     4
100
AcDbLine
 10
168.4
 20
69.0
 30
0.0
 11
166.4
 21
65.53589800000001
 31
0.0
  0
LINE
  5
7A
330
74
100
AcDbEntity
  8
CSLAYER1
  6
CONTINUOUS
 62
     4
100
AcDbLine
 10
170.4
 20
65.53589800000001
 30
0.0
 11
168.4
 21
69.0
 31
0.0
  0
LINE
  5
7B
330
74
100
AcDbEntity
  8
CSLAYER1
  6
CONTINUOUS
 62
     4
100
AcDbLine
 10
172.4
 20
69.0
 30
0.0
 11
170.4
 21
65.53589800000001
 31
0.0
  0
LINE
  5
7C
330
74
100
AcDbEntity
  8
CSLAYER1
  6
CONTINUOUS
 62
     4
100
AcDbLine
 10
174.3999999999999
 20
65.53589800000001
 30
0.0
 11
172.4
 21
69.0
 31
0.0
  0
ENDBLK
  5
7D
330
74
100
AcDbEntity
  8
0
100
AcDbBlockEnd
  0
BLOCK
  5
7F
330
7E
100
AcDbEntity
  8
0
100
AcDbBlockBegin
  2
*D6
 70
     1
 10
0.0
 20
0.0
 30
0.0
  3
*D6
  1

  0
TEXT
  5
80
330
7E
100
AcDbEntity
  8
CSLAYER1
 62
     4
100
AcDbText
 10
115.356476
 20
139.033035
 30
0.0
 40
3.0
  1
8
 50
90.0
 41
1.5
 51
15.0
  7
FX_FONT
 72
     5
 11
115.356476
 21
142.033035
 31
0.0
100
AcDbText
  0
LINE
  5
81
330
7E
100
AcDbEntity
  8
CSLAYER1
  6
CONTINUOUS
 62
     4
100
AcDbLine
 10
116.356476
 20
130.0
 30
0.0
 11
116.356476
 21
146.0
 31
0.0
  0
LINE
  5
82
330
7E
100
AcDbEntity
  8
CSLAYER1
  6
CONTINUOUS
 62
     4
100
AcDbLine
 10
116.356476
 20
130.0
 30
0.0
 11
115.5800179999999
 21
132.8977769999999
 31
0.0
  0
LINE
  5
83
330
7E
100
AcDbEntity
  8
CSLAYER1
  6
CONTINUOUS
 62
     4
100
AcDbLine
 10
116.356476
 20
130.0
 30
0.0
 11
117.132933
 21
132.8977769999999
 31
0.0
  0
LINE
  5
84
330
7E
100
AcDbEntity
  8
CSLAYER1
  6
CONTINUOUS
 62
     4
100
AcDbLine
 10
116.356476
 20
146.0
 30
0.0
 11
115.5800179999999
 21
143.102223
 31
0.0
  0
LINE
  5
85
330
7E
100
AcDbEntity
  8
CSLAYER1
  6
CONTINUOUS
 62
     4
100
AcDbLine
 10
116.356476
 20
146.0
 30
0.0
 11
117.132933
 21
143.102223
 31
0.0
  0
ENDBLK
  5
86
330
7E
100
AcDbEntity
  8
0
100
AcDbBlockEnd
  0
BLOCK
  5
88
330
87
100
AcDbEntity
  8
0
100
AcDbBlockBegin
  2
*D7
 70
     1
 10
0.0
 20
0.0
 30
0.0
  3
*D7
  1

  0
TEXT
  5
89
330
87
100
AcDbEntity
  8
CSLAYER1
 62
     4
100
AcDbText
 10
105.684654
 20
112.0581969999999
 30
0.0
 40
3.0
  1
(14.8)
 41
1.125
 51
15.0
  7
FX_FONT
 72
     5
 11
123.684654
 21
112.0581969999999
 31
0.0
100
AcDbText
  0
LINE
  5
8A
330
87
100
AcDbEntity
  8
CSLAYER1
  6
CONTINUOUS
 62
     4
100
AcDbLine
 10
99.882007
 20
111.0581969999999
 30
0.0
 11
129.4872969999999
 21
111.0581969999999
 31
0.0
  0
LINE
  5
8B
330
87
100
AcDbEntity
  8
CSLAYER1
  6
CONTINUOUS
 62
     4
100
AcDbLine
 10
99.882007
 20
111.0581969999999
 30
0.0
 11
102.7797839999999
 21
111.834655
 31
0.0
  0
LINE
  5
8C
330
87
100
AcDbEntity
  8
CSLAYER1
  6
CONTINUOUS
 62
     4
100
AcDbLine
 10
99.882007
 20
111.0581969999999
 30
0.0
 11
102.7797839999999
 21
110.2817399999999
 31
0.0
  0
LINE
  5
8D
330
87
100
AcDbEntity
  8
CSLAYER1
  6
CONTINUOUS
 62
     4
100
AcDbLine
 10
129.4872969999999
 20
111.0581969999999
 30
0.0
 11
126.5895189999999
 21
111.834655
 31
0.0
  0
LINE
  5
8E
330
87
100
AcDbEntity
  8
CSLAYER1
  6
CONTINUOUS
 62
     4
100
AcDbLine
 10
129.4872969999999
 20
111.0581969999999
 30
0.0
 11
126.5895189999999
 21
110.2817399999999
 31
0.0
  0
LINE
  5
8F
330
87
100
AcDbEntity
  8
CSLAYER1
  6
CONTINUOUS
 62
     4
100
AcDbLine
 10
99.882007
 20
127.0
 30
0.0
 11
99.882007
 21
110.0581969999999
 31
0.0
  0
LINE
  5
90
330
87
100
AcDbEntity
  8
CSLAYER1
  6
CONTINUOUS
 62
     4
100
AcDbLine
 10
129.4872969999999
 20
137.0
 30
0.0
 11
129.4872969999999
 21
110.0581969999999
 31
0.0
  0
ENDBLK
  5
91
330
87
100
AcDbEntity
  8
0
100
AcDbBlockEnd
  0
BLOCK
  5
93
330
92
100
AcDbEntity
  8
0
100
AcDbBlockBegin
  2
*D8
 70
     1
 10
0.0
 20
0.0
 30
0.0
  3
*D8
  1

  0
TEXT
  5
94
330
92
100
AcDbEntity
  8
CSLAYER1
 62
     4
100
AcDbText
 10
122.882004
 20
179.424255
 30
0.0
 40
3.0
  1
26
 41
1.199999999999997
 51
15.0
  7
FX_FONT
 72
     5
 11
128.882004
 21
179.424255
 31
0.0
100
AcDbText
  0
LINE
  5
95
330
92
100
AcDbEntity
  8
CSLAYER1
  6
CONTINUOUS
 62
     4
100
AcDbLine
 10
99.882007
 20
178.4242499999999
 30
0.0
 11
151.882007
 21
178.4242499999999
 31
0.0
  0
LINE
  5
96
330
92
100
AcDbEntity
  8
CSLAYER1
  6
CONTINUOUS
 62
     4
100
AcDbLine
 10
99.882007
 20
178.4242499999999
 30
0.0
 11
102.7797839999999
 21
179.2007069999999
 31
0.0
  0
LINE
  5
97
330
92
100
AcDbEntity
  8
CSLAYER1
  6
CONTINUOUS
 62
     4
100
AcDbLine
 10
99.882007
 20
178.4242499999999
 30
0.0
 11
102.7797839999999
 21
177.647793
 31
0.0
  0
LINE
  5
98
330
92
100
AcDbEntity
  8
CSLAYER1
  6
CONTINUOUS
 62
     4
100
AcDbLine
 10
151.882007
 20
178.4242499999999
 30
0.0
 11
148.984229
 21
179.2007069999999
 31
0.0
  0
LINE
  5
99
330
92
100
AcDbEntity
  8
CSLAYER1
  6
CONTINUOUS
 62
     4
100
AcDbLine
 10
151.882007
 20
178.4242499999999
 30
0.0
 11
148.984229
 21
177.647793
 31
0.0
  0
LINE
  5
9A
330
92
100
AcDbEntity
  8
CSLAYER1
  6
CONTINUOUS
 62
     4
100
AcDbLine
 10
99.882007
 20
149.0
 30
0.0
 11
99.882007
 21
179.42425
 31
0.0
  0
LINE
  5
9B
330
92
100
AcDbEntity
  8
CSLAYER1
  6
CONTINUOUS
 62
     4
100
AcDbLine
 10
151.882007
 20
166.5999999999999
 30
0.0
 11
151.882007
 21
179.42425
 31
0.0
  0
ENDBLK
  5
9C
330
92
100
AcDbEntity
  8
0
100
AcDbBlockEnd
  0
BLOCK
  5
9E
330
9D
100
AcDbEntity
  8
0
100
AcDbBlockBegin
  2
*D9
 70
     1
 10
0.0
 20
0.0
 30
0.0
  3
*D9
  1

  0
TEXT
  5
9F
330
9D
100
AcDbEntity
  8
CSLAYER1
 62
     4
100
AcDbText
 10
106.308112
 20
173.345791
 30
0.0
 40
3.0
  1
35%%d
 50
342.5000020357876
 41
1.285714337707237
 51
15.0
  7
FX_FONT
 72
     5
 11
114.8915649999999
 21
170.6394389999998
 31
0.0
100
AcDbText
  0
ARC
  5
A0
330
9D
100
AcDbEntity
  8
CSLAYER1
  6
CONTINUOUS
 62
     4
100
AcDbCircle
 10
99.882007
 20
138.0
 30
0.0
 40
34.642257
100
AcDbArc
 50
55.0
 51
90.0
  0
LINE
  5
A1
330
9D
100
AcDbEntity
  8
CSLAYER1
  6
CONTINUOUS
 62
     4
100
AcDbLine
 10
119.7519889999999
 20
166.377276
 30
0.0
 11
116.932911
 21
167.403336
 31
0.0
  0
LINE
  5
A2
330
9D
100
AcDbEntity
  8
CSLAYER1
  6
CONTINUOUS
 62
     4
100
AcDbLine
 10
119.7519889999999
 20
166.377276
 30
0.0
 11
117.823626
 21
168.6754089999999
 31
0.0
  0
LINE
  5
A3
330
9D
100
AcDbEntity
  8
CSLAYER1
  6
CONTINUOUS
 62
     4
100
AcDbLine
 10
99.882007
 20
172.6422569999999
 30
0.0
 11
102.7797839999999
 21
173.4187139999999
 31
0.0
  0
LINE
  5
A4
330
9D
100
AcDbEntity
  8
CSLAYER1
  6
CONTINUOUS
 62
     4
100
AcDbLine
 10
99.882007
 20
172.6422569999999
 30
0.0
 11
102.7797839999999
 21
171.8658
 31
0.0
  0
LINE
  5
A5
330
9D
100
AcDbEntity
  8
CSLAYER1
  6
CONTINUOUS
 62
     4
100
AcDbLine
 10
103.071394
 20
142.5549159999999
 30
0.0
 11
120.3255659999999
 21
167.196428
 31
0.0
  0
ENDBLK
  5
A6
330
9D
100
AcDbEntity
  8
0
100
AcDbBlockEnd
  0
BLOCK
  5
A8
330
A7
100
AcDbEntity
  8
0
100
AcDbBlockBegin
  2
*D10
 70
     1
 10
0.0
 20
0.0
 30
0.0
  3
*D10
  1

  0
TEXT
  5
A9
330
A7
100
AcDbEntity
  8
CSLAYER1
 62
     4
100
AcDbText
 10
103.3936439999999
 20
168.236907
 30
0.0
 40
3.0
  1
45%%d
 50
337.4999998658588
 41
1.285714319030623
 51
15.0
  7
FX_FONT
 72
     5
 11
111.70856
 21
164.792756
 31
0.0
100
AcDbText
  0
ARC
  5
AA
330
A7
100
AcDbEntity
  8
CSLAYER1
  6
CONTINUOUS
 62
     4
100
AcDbCircle
 10
99.882007
 20
148.0
 30
0.0
 40
19.040311
100
AcDbArc
 50
45.0
 51
90.0
  0
LINE
  5
AB
330
A7
100
AcDbEntity
  8
CSLAYER1
  6
CONTINUOUS
 62
     4
100
AcDbLine
 10
113.3455399999999
 20
161.463533
 30
0.0
 11
110.7474639999999
 21
162.963533
 31
0.0
  0
LINE
  5
AC
330
A7
100
AcDbEntity
  8
CSLAYER1
  6
CONTINUOUS
 62
     4
100
AcDbLine
 10
113.3455399999999
 20
161.463533
 30
0.0
 11
111.8455399999999
 21
164.0616089999998
 31
0.0
  0
LINE
  5
AD
330
A7
100
AcDbEntity
  8
CSLAYER1
  6
CONTINUOUS
 62
     4
100
AcDbLine
 10
99.882007
 20
167.040311
 30
0.0
 11
102.7797839999999
 21
167.816768
 31
0.0
  0
LINE
  5
AE
330
A7
100
AcDbEntity
  8
CSLAYER1
  6
CONTINUOUS
 62
     4
100
AcDbLine
 10
99.882007
 20
167.040311
 30
0.0
 11
102.7797839999999
 21
166.263854
 31
0.0
  0
LINE
  5
AF
330
A7
100
AcDbEntity
  8
CSLAYER1
  6
CONTINUOUS
 62
     4
100
AcDbLine
 10
110.5891139999999
 20
158.707107
 30
0.0
 11
114.0526469999999
 21
162.1706399999998
 31
0.0
  0
ENDBLK
  5
B0
330
A7
100
AcDbEntity
  8
0
100
AcDbBlockEnd
  0
BLOCK
  5
B2
330
B1
100
AcDbEntity
  8
0
100
AcDbBlockBegin
  2
*D11
 70
     1
 10
0.0
 20
0.0
 30
0.0
  3
*D11
  1

  0
TEXT
  5
B3
330
B1
100
AcDbEntity
  8
CSLAYER1
 62
     4
100
AcDbText
 10
21.340851
 20
30.809212
 30
0.0
 40
3.0
  1
4
 50
90.0
 41
1.500000000000001
 51
15.0
  7
FX_FONT
 72
     5
 11
21.340851
 21
33.809212
 31
0.0
100
AcDbText
  0
LINE
  5
B4
330
B1
100
AcDbEntity
  8
CSLAYER1
  6
CONTINUOUS
 62
     4
100
AcDbLine
 10
22.340851
 20
28.30921099999999
 30
0.0
 11
22.340851
 21
36.309211
 31
0.0
  0
LINE
  5
B5
330
B1
100
AcDbEntity
  8
CSLAYER1
  6
CONTINUOUS
 62
     4
100
AcDbLine
 10
22.340851
 20
28.30921099999999
 30
0.0
 11
21.564394
 21
31.20698799999999
 31
0.0
  0
LINE
  5
B6
330
B1
100
AcDbEntity
  8
CSLAYER1
  6
CONTINUOUS
 62
     4
100
AcDbLine
 10
22.340851
 20
28.30921099999999
 30
0.0
 11
23.11730799999998
 21
31.20698799999999
 31
0.0
  0
LINE
  5
B7
330
B1
100
AcDbEntity
  8
CSLAYER1
  6
CONTINUOUS
 62
     4
100
AcDbLine
 10
22.340851
 20
36.309211
 30
0.0
 11
21.564394
 21
33.411433
 31
0.0
  0
LINE
  5
B8
330
B1
100
AcDbEntity
  8
CSLAYER1
  6
CONTINUOUS
 62
     4
100
AcDbLine
 10
22.340851
 20
36.309211
 30
0.0
 11
23.11730799999998
 21
33.411433
 31
0.0
  0
LINE
  5
B9
330
B1
100
AcDbEntity
  8
CSLAYER1
  6
CONTINUOUS
 62
     4
100
AcDbLine
 10
34.447266
 20
28.30921099999999
 30
0.0
 11
21.340851
 21
28.30921099999999
 31
0.0
  0
LINE
  5
BA
330
B1
100
AcDbEntity
  8
CSLAYER1
  6
CONTINUOUS
 62
     4
100
AcDbLine
 10
34.447266
 20
36.309211
 30
0.0
 11
21.340851
 21
36.309211
 31
0.0
  0
ENDBLK
  5
BB
330
B1
100
AcDbEntity
  8
0
100
AcDbBlockEnd
  0
BLOCK
  5
13B
330
12F
100
AcDbEntity
  8
0
100
AcDbBlockBegin
  2
*D12
 70
     1
 10
0.0
 20
0.0
 30
0.0
  3
*D12
  1

  0
LINE
  5
130
330
12F
100
AcDbEntity
  8
CSLAYER1
 62
     0
100
AcDbLine
 10
102.5336655262254
 20
141.7869610035006
 30
0.0
 11
119.8552325484115
 21
166.5247234958334
 31
0.0
  0
ARC
  5
131
330
12F
100
AcDbEntity
  8
CSLAYER1
 62
     0
100
AcDbCircle
 10
99.882007
 20
138.0
 30
0.0
 40
34.64225709688378
100
AcDbArc
 50
55.29770844453803
 51
71.84327529945803
  0
ARC
  5
132
330
12F
100
AcDbEntity
  8
CSLAYER1
 62
     0
100
AcDbCircle
 10
99.882007
 20
138.0
 30
0.0
 40
34.64225709688378
100
AcDbArc
 50
73.1543608947657
 51
89.70229272633394
  0
SOLID
  5
133
330
12F
100
AcDbEntity
  8
CSLAYER1
 62
     0
100
AcDbTrace
 10
119.6214170850839
 20
166.5047556500793
 30
0.0
 11
119.5871303046422
 21
166.4555172840731
 31
0.0
 12
119.7519887928815
 22
166.3772761257515
 32
0.0
 13
119.7519887928815
 23
166.3772761257515
 33
0.0
  0
SOLID
  5
134
330
12F
100
AcDbEntity
  8
CSLAYER1
 62
     0
100
AcDbTrace
 10
100.0619284530479
 20
172.6117895611608
 30
0.0
 11
100.0620843320367
 21
172.671789358675
 31
0.0
 12
99.88200699999996
 22
172.6422570968837
 32
0.0
 13
99.88200699999996
 23
172.6422570968837
 33
0.0
  0
MTEXT
  5
135
330
12F
100
AcDbEntity
  8
CSLAYER1
 62
     0
100
AcDbMText
 10
110.2991342793665
 20
171.038907911916
 30
0.0
 40
0.18
 41
0.0
 71
     5
 72
     1
  1
\A1;35°
1001
ACAD
1000
MTEXTBEGIN
1070
    73
1070
     1
1070
    44
1040
1.0
1070
    74
1070
     0
1000
MTEXTEND
1000
MTEXTBEGIN
1070
    73
1070
     1
1070
    44
1040
1.0
1070
    74
1070
     0
1000
MTEXTEND
  0
POINT
  5
136
330
12F
100
AcDbEntity
  8
DEFPOINTS
 62
     0
100
AcDbPoint
 10
113.603103652644
 20
169.8090786319784
 30
0.0
  0
POINT
  5
137
330
12F
100
AcDbEntity
  8
DEFPOINTS
 62
     0
100
AcDbPoint
 10
99.882007
 20
138.0
 30
0.0
  0
POINT
  5
138
330
12F
100
AcDbEntity
  8
DEFPOINTS
 62
     0
100
AcDbPoint
 10
99.882007
 20
178.328396
 30
0.0
  0
POINT
  5
139
330
12F
100
AcDbEntity
  8
DEFPOINTS
 62
     0
100
AcDbPoint
 10
99.882007
 20
149.0
 30
0.0
  0
POINT
  5
13A
330
12F
100
AcDbEntity
  8
DEFPOINTS
 62
     0
100
AcDbPoint
 10
102.497817
 20
141.7357639999998
 30
0.0
  0
ENDBLK
  5
13C
330
12F
100
AcDbEntity
  8
0
100
AcDbBlockEnd
  0
BLOCK
  5
149
330
13D
100
AcDbEntity
  8
0
100
AcDbBlockBegin
  2
*D13
 70
     1
 10
0.0
 20
0.0
 30
0.0
  3
*D13
  1

  0
LINE
  5
13E
330
13D
100
AcDbEntity
  8
CSLAYER1
 62
     0
100
AcDbLine
 10
109.9262011738241
 20
158.0441941738241
 30
0.0
 11
113.4728193358667
 21
161.5908123358665
 31
0.0
  0
ARC
  5
13F
330
13D
100
AcDbEntity
  8
CSLAYER1
 62
     0
100
AcDbCircle
 10
99.882007
 20
147.9999999999999
 30
0.0
 40
19.0403111290503
100
AcDbArc
 50
45.54165494708715
 51
66.2631848162508
  0
ARC
  5
140
330
13D
100
AcDbEntity
  8
CSLAYER1
 62
     0
100
AcDbCircle
 10
99.882007
 20
147.9999999999999
 30
0.0
 40
19.0403111290503
100
AcDbArc
 50
68.72585178397875
 51
89.45834505291294
  0
SOLID
  5
141
330
13D
100
AcDbEntity
  8
CSLAYER1
 62
     0
100
AcDbTrace
 10
113.2387733869888
 20
161.6115225261436
 30
0.0
 11
113.1965479957952
 21
161.5688960515231
 31
0.0
 12
113.3455401152529
 22
161.463533115253
 32
0.0
 13
113.3455401152529
 23
161.463533115253
 33
0.0
  0
SOLID
  5
142
330
13D
100
AcDbEntity
  8
CSLAYER1
 62
     0
100
AcDbTrace
 10
100.0618631847343
 20
167.0094606377606
 30
0.0
 11
100.0621467935453
 21
167.0694599674739
 31
0.0
 12
99.882007
 22
167.0403111290501
 32
0.0
 13
99.882007
 23
167.0403111290501
 33
0.0
  0
MTEXT
  5
143
330
13D
100
AcDbEntity
  8
CSLAYER1
 62
     0
100
AcDbMText
 10
107.1684186161639
 20
165.5909537447763
 30
0.0
 40
0.18
 41
0.0
 71
     5
 72
     1
  1
\A1;45°
1001
ACAD
1000
MTEXTBEGIN
1070
    73
1070
     1
1070
    44
1040
1.0
1070
    74
1070
     0
1000
MTEXTEND
1000
MTEXTBEGIN
1070
    73
1070
     1
1070
    44
1040
1.0
1070
    74
1070
     0
1000
MTEXTEND
  0
POINT
  5
144
330
13D
100
AcDbEntity
  8
DEFPOINTS
 62
     0
100
AcDbPoint
 10
109.4021625645249
 20
164.4893931337171
 30
0.0
  0
POINT
  5
145
330
13D
100
AcDbEntity
  8
DEFPOINTS
 62
     0
100
AcDbPoint
 10
99.882007
 20
147.9999999999999
 30
0.0
  0
POINT
  5
146
330
13D
100
AcDbEntity
  8
DEFPOINTS
 62
     0
100
AcDbPoint
 10
99.882007
 20
178.3283959999999
 30
0.0
  0
POINT
  5
147
330
13D
100
AcDbEntity
  8
DEFPOINTS
 62
     0
100
AcDbPoint
 10
99.882007
 20
148.9999999999999
 30
0.0
  0
POINT
  5
148
330
13D
100
AcDbEntity
  8
DEFPOINTS
 62
     0
100
AcDbPoint
 10
109.8820069999999
 20
157.9999999999999
 30
0.0
  0
ENDBLK
  5
14A
330
13D
100
AcDbEntity
  8
0
100
AcDbBlockEnd
  0
ENDSEC
  0
SECTION
  2
ENTITIES
  0
POINT
  5
BC
330
1E
100
AcDbEntity
  8
CSLAYER1
 62
     3
100
AcDbPoint
 10
135.4999999999999
 20
26.75
 30
0.0
  0
POINT
  5
BD
330
1E
100
AcDbEntity
  8
CSLAYER1
 62
     3
100
AcDbPoint
 10
125.2499999999999
 20
26.75
 30
0.0
  0
TEXT
  5
BF
330
1E
100
AcDbEntity
  8
CSLAYER1
 62
     3
100
AcDbText
 10
119.0499999999999
 20
25.5
 30
0.0
 40
2.5
  1
刃開キハ
 41
1.110447761194031
  7
FX_FONT
 72
     5
 11
131.45
 21
25.5
 31
0.0
100
AcDbText
  0
TEXT
  5
C0
330
1E
100
AcDbEntity
  8
CSLAYER1
 62
     3
100
AcDbText
 10
134.25
 20
25.5
 30
0.0
 40
2.5
  1
4
 41
1.499999999999982
  7
FX_FONT
 72
     5
 11
136.7499999999999
 21
25.5
 31
0.0
100
AcDbText
  0
TEXT
  5
C1
330
1E
100
AcDbEntity
  8
CSLAYER1
 62
     3
100
AcDbText
 10
122.7
 20
8.625
 30
0.0
 40
1.75
  1
N7AE
 41
1.184415584415585
  7
FX_FONT
 72
     5
 11
130.3
 21
8.625
 31
0.0
100
AcDbText
  0
INSERT
  5
C5
330
1E
100
AcDbEntity
  8
CSLAYER1
100
AcDbBlockReference
  2
FXDIM0001
 10
0.0
 20
0.0
 30
0.0
 41
0.5
 42
0.5
 43
0.5
  0
INSERT
  5
C6
330
1E
100
AcDbEntity
  8
CSLAYER1
100
AcDbBlockReference
  2
FXDIM0002
 10
0.0
 20
0.0
 30
0.0
 41
0.5
 42
0.5
 43
0.5
  0
POINT
  5
C7
330
1E
100
AcDbEntity
  8
CSLAYER1
 62
     3
100
AcDbPoint
 10
126.5
 20
9.5
 30
0.0
  0
LINE
  5
C8
330
1E
100
AcDbEntity
  8
CSLAYER1
  6
CONTINUOUS
 62
     3
100
AcDbLine
 10
119.0
 20
25.0
 30
0.0
 11
139.5
 21
25.0
 31
0.0
  0
LINE
  5
C9
330
1E
100
AcDbEntity
  8
CSLAYER1
  6
CONTINUOUS
 62
     3
100
AcDbLine
 10
49.9410035
 20
74.0
 30
0.0
 11
49.9410035
 21
64.0
 31
0.0
  0
LINE
  5
CA
330
1E
100
AcDbEntity
  8
CSLAYER1
  6
CONTINUOUS
 62
     3
100
AcDbLine
 10
54.9410035
 20
59.0
 30
0.0
 11
83.9410035
 21
59.0
 31
0.0
  0
LINE
  5
CB
330
1E
100
AcDbEntity
  8
CSLAYER1
  6
CONTINUOUS
 62
     3
100
AcDbLine
 10
83.9410035
 20
59.0
 30
0.0
 11
124.373602
 21
61.85665099999995
 31
0.0
  0
ARC
  5
CC
330
1E
100
AcDbEntity
  8
CSLAYER1
  6
CONTINUOUS
 62
     3
100
AcDbCircle
 10
123.9507429999999
 20
67.84173149999995
 30
0.0
 40
6.0
100
AcDbArc
 50
274.0413559999999
 51
356.734936
  0
LINE
  5
CD
330
1E
100
AcDbEntity
  8
CSLAYER1
  6
CONTINUOUS
 62
     3
100
AcDbLine
 10
129.9410034999999
 20
67.5
 30
0.0
 11
87.16597550000001
 21
67.5
 31
0.0
  0
LINE
  5
CE
330
1E
100
AcDbEntity
  8
CSLAYER1
  6
CONTINUOUS
 62
     3
100
AcDbLine
 10
87.50786249999995
 20
67.5
 30
0.0
 11
84.930526
 21
59.069912
 31
0.0
  0
ARC
  5
CF
330
1E
100
AcDbEntity
  8
CSLAYER1
  6
CONTINUOUS
 62
     3
100
AcDbCircle
 10
75.94100350000001
 20
69.0
 30
0.0
 40
10.5
100
AcDbArc
 50
287.75279
 51
3.822554
  0
LINE
  5
D0
330
1E
100
AcDbEntity
  8
CSLAYER1
  6
CONTINUOUS
 62
     3
100
AcDbLine
 10
87.16597550000001
 20
70.5
 30
0.0
 11
129.9410034999999
 21
70.5
 31
0.0
  0
ARC
  5
D1
330
1E
100
AcDbEntity
  8
CSLAYER1
  6
CONTINUOUS
 62
     3
100
AcDbCircle
 10
123.9507429999999
 20
70.1582685
 30
0.0
 40
6.0
100
AcDbArc
 50
3.265063999999999
 51
85.95864399999998
  0
LINE
  5
D2
330
1E
100
AcDbEntity
  8
CSLAYER1
  6
CONTINUOUS
 62
     3
100
AcDbLine
 10
124.373602
 20
76.143349
 30
0.0
 11
83.9410035
 21
79.0
 31
0.0
  0
LINE
  5
D3
330
1E
100
AcDbEntity
  8
CSLAYER1
  6
CONTINUOUS
 62
     3
100
AcDbLine
 10
83.9410035
 20
79.0
 30
0.0
 11
54.9410035
 21
79.0
 31
0.0
  0
LINE
  5
D4
330
1E
100
AcDbEntity
  8
CSLAYER1
  6
CONTINUOUS
 62
     3
100
AcDbLine
 10
51.24890849999999
 20
70.86788199999991
 30
0.0
 11
49.9410035
 21
69.0
 31
0.0
  0
LINE
  5
D5
330
1E
100
AcDbEntity
  8
CSLAYER1
  6
CONTINUOUS
 62
     3
100
AcDbLine
 10
49.9410035
 20
69.0
 30
0.0
 11
51.24890849999999
 21
67.132118
 31
0.0
  0
LINE
  5
D6
330
1E
100
AcDbEntity
  8
CSLAYER1
  6
CONTINUOUS
 62
     3
100
AcDbLine
 10
64.302269
 20
70.26490649999999
 30
0.0
 11
66.94854199999989
 21
78.9204755
 31
0.0
  0
ARC
  5
D7
330
1E
100
AcDbEntity
  8
CSLAYER1
  6
CONTINUOUS
 62
     3
100
AcDbCircle
 10
75.94100350000001
 20
69.0
 30
0.0
 40
10.5
100
AcDbArc
 50
107.7527899999999
 51
172.8192439999999
  0
CIRCLE
  5
D8
330
1E
100
AcDbEntity
  8
CSLAYER1
  6
CONTINUOUS
 62
     3
100
AcDbCircle
 10
75.94100350000001
 20
69.0
 30
0.0
 40
2.049999999999998
  0
CIRCLE
  5
D9
330
1E
100
AcDbEntity
  8
CSLAYER1
  6
CONTINUOUS
 62
     3
100
AcDbCircle
 10
75.94100350000001
 20
69.0
 30
0.0
 40
6.4
  0
ARC
  5
DA
330
1E
100
AcDbEntity
  8
CSLAYER1
  6
CONTINUOUS
 62
     3
100
AcDbCircle
 10
87.16597550000001
 20
68.24999999999995
 30
0.0
 40
0.75
100
AcDbArc
 50
176.1774459999999
 51
270.0
  0
ARC
  5
DB
330
1E
100
AcDbEntity
  8
CSLAYER1
  6
CONTINUOUS
 62
     3
100
AcDbCircle
 10
87.16597550000001
 20
69.75
 30
0.0
 40
0.75
100
AcDbArc
 50
90.0
 51
183.8225539999998
  0
LINE
  5
DC
330
1E
100
AcDbEntity
  8
CSLAYER1
  6
CONTINUOUS
 62
     3
100
AcDbLine
 10
84.930526
 20
43.5
 30
0.0
 11
84.930526
 21
39.75
 31
0.0
  0
LINE
  5
DD
330
1E
100
AcDbEntity
  8
CSLAYER1
  6
CONTINUOUS
 62
     3
100
AcDbLine
 10
84.18052600000001
 20
39.0
 30
0.0
 11
67.69854200000001
 21
39.0
 31
0.0
  0
ARC
  5
DE
330
1E
100
AcDbEntity
  8
CSLAYER1
  6
CONTINUOUS
 62
     3
100
AcDbCircle
 10
67.69854200000001
 20
38.25
 30
0.0
 40
0.75
100
AcDbArc
 50
90.0
 51
180.0
  0
LINE
  5
DF
330
1E
100
AcDbEntity
  8
CSLAYER1
  6
CONTINUOUS
 62
     3
100
AcDbLine
 10
66.94854199999989
 20
38.25
 30
0.0
 11
66.94854199999989
 21
34.5
 31
0.0
  0
LINE
  5
E0
330
1E
100
AcDbEntity
  8
CSLAYER1
  6
CONTINUOUS
 62
     3
100
AcDbLine
 10
72.7394415
 20
34.5
 30
0.0
 11
72.7394415
 21
38.5
 31
0.0
  0
LINE
  5
E1
330
1E
100
AcDbEntity
  8
CSLAYER1
  6
CONTINUOUS
 62
     3
100
AcDbLine
 10
72.7394415
 20
38.5
 30
0.0
 11
73.23944149999995
 21
39.0
 31
0.0
  0
LINE
  5
E2
330
1E
100
AcDbEntity
  8
CSLAYER1
  6
CONTINUOUS
 62
     3
100
AcDbLine
 10
78.6425655
 20
39.0
 30
0.0
 11
79.14256550000001
 21
39.5
 31
0.0
  0
LINE
  5
E3
330
1E
100
AcDbEntity
  8
CSLAYER1
  6
CONTINUOUS
 62
     3
100
AcDbLine
 10
79.14256550000001
 20
39.5
 30
0.0
 11
79.14256550000001
 21
43.5
 31
0.0
  0
ARC
  5
E4
330
1E
100
AcDbEntity
  8
CSLAYER1
  6
CONTINUOUS
 62
     3
100
AcDbCircle
 10
84.18052600000001
 20
39.75
 30
0.0
 40
0.75
100
AcDbArc
 50
270.0
 51
0.0
  0
LINE
  5
E5
330
1E
100
AcDbEntity
  8
CSLAYER1
  6
CONTINUOUS
 62
     3
100
AcDbLine
 10
92.9410035
 20
43.5
 30
0.0
 11
49.9410035
 21
43.5
 31
0.0
  0
LINE
  5
E6
330
1E
100
AcDbEntity
  8
CSLAYER1
  6
CONTINUOUS
 62
     3
100
AcDbLine
 10
49.9410035
 20
43.5
 30
0.0
 11
49.9410035
 21
34.5
 31
0.0
  0
LINE
  5
E7
330
1E
100
AcDbEntity
  8
CSLAYER1
  6
CONTINUOUS
 62
     3
100
AcDbLine
 10
49.9410035
 20
34.5
 30
0.0
 11
92.9410035
 21
34.5
 31
0.0
  0
LINE
  5
E8
330
1E
100
AcDbEntity
  8
CSLAYER1
  6
CONTINUOUS
 62
     3
100
AcDbLine
 10
92.9410035
 20
34.5
 30
0.0
 11
126.442281
 21
35.40544000000001
 31
0.0
  0
ARC
  5
E9
330
1E
100
AcDbEntity
  8
CSLAYER1
  6
CONTINUOUS
 62
     3
100
AcDbCircle
 10
126.345131
 20
39.0
 30
0.0
 40
3.5958725
100
AcDbArc
 50
271.548158
 51
88.451842
  0
LINE
  5
EA
330
1E
100
AcDbEntity
  8
CSLAYER1
  6
CONTINUOUS
 62
     3
100
AcDbLine
 10
126.442281
 20
42.59455999999999
 30
0.0
 11
92.9410035
 21
43.5
 31
0.0
  0
LINE
  5
EB
330
1E
100
AcDbEntity
  8
CSLAYER1
  6
CONTINUOUS
 62
     3
100
AcDbLine
 10
120.4410034999999
 20
67.5
 30
0.0
 11
120.4410034999999
 21
70.5
 31
0.0
  0
LINE
  5
EC
330
1E
100
AcDbEntity
  8
CSLAYER1
  6
CONTINUOUS
 62
     3
100
AcDbLine
 10
125.4410035
 20
70.5
 30
0.0
 11
125.4410035
 21
67.5
 31
0.0
  0
LINE
  5
ED
330
1E
100
AcDbEntity
  8
CSLAYER1
  6
CENTER
 62
     4
100
AcDbLine
 10
59.7410035
 20
39.0
 30
0.0
 11
66.94854199999989
 21
39.0
 31
0.0
  0
LINE
  5
EE
330
1E
100
AcDbEntity
  8
CSLAYER1
  6
CENTER
 62
     4
100
AcDbLine
 10
75.94100350000001
 20
31.27542849999999
 30
0.0
 11
75.94100350000001
 21
47.32457150000001
 31
0.0
  0
LINE
  5
EF
330
1E
100
AcDbEntity
  8
CSLAYER1
  6
CENTER
 62
     4
100
AcDbLine
 10
75.94100350000001
 20
54.6
 30
0.0
 11
75.94100350000001
 21
82.7999999999999
 31
0.0
  0
LINE
  5
F0
330
1E
100
AcDbEntity
  8
CSLAYER1
  6
CENTER
 62
     4
100
AcDbLine
 10
91.94100350000001
 20
73.756231
 30
0.0
 11
91.94100350000001
 21
64.10830899999995
 31
0.0
  0
LINE
  5
F1
330
1E
100
AcDbEntity
  8
CSLAYER1
  6
CENTER
 62
     4
100
AcDbLine
 10
91.94100350000001
 20
39.0
 30
0.0
 11
84.930526
 21
39.0
 31
0.0
  0
LINE
  5
F2
330
1E
100
AcDbEntity
  8
CSLAYER1
  6
CENTER
 62
     4
100
AcDbLine
 10
47.50400349999999
 20
69.0
 30
0.0
 11
131.1410034999999
 21
69.0
 31
0.0
  0
LINE
  5
F3
330
1E
100
AcDbEntity
  8
CSLAYER1
  6
CENTER
 62
     4
100
AcDbLine
 10
122.9410034999999
 20
72.36121199999995
 30
0.0
 11
122.9410034999999
 21
65.3769695
 31
0.0
  0
LINE
  5
F4
330
1E
100
AcDbEntity
  8
CSLAYER1
  6
CENTER
 62
     4
100
AcDbLine
 10
134.4185395
 20
39.0
 30
0.0
 11
123.0410035
 21
39.0
 31
0.0
  0
LINE
  5
F5
330
1E
100
AcDbEntity
  8
CSLAYER1
  6
CONTINUOUS
 62
     3
100
AcDbLine
 10
55.34466899999999
 20
65.0
 30
0.0
 11
59.8446689999999
 21
65.0
 31
0.0
  0
ARC
  5
F6
330
1E
100
AcDbEntity
  8
CSLAYER1
  6
CONTINUOUS
 62
     3
100
AcDbCircle
 10
59.8446689999999
 20
70.0
 30
0.0
 40
5.0
100
AcDbArc
 50
270.0
 51
350.7695959999998
  0
LINE
  5
F7
330
1E
100
AcDbEntity
  8
CSLAYER1
  6
CONTINUOUS
 62
     3
100
AcDbLine
 10
49.9410035
 20
74.0
 30
0.0
 11
54.9410035
 21
79.0
 31
0.0
  0
ARC
  5
F8
330
1E
100
AcDbEntity
  8
CSLAYER1
  6
CONTINUOUS
 62
     3
100
AcDbCircle
 10
55.34466899999999
 20
70.0
 30
0.0
 40
5.0
100
AcDbArc
 50
214.9999999999999
 51
270.0
  0
ARC
  5
F9
330
1E
100
AcDbEntity
  8
CSLAYER1
  6
CONTINUOUS
 62
     3
100
AcDbCircle
 10
64.03512249999995
 20
70.5
 30
0.0
 40
1.5
100
AcDbArc
 50
299.771031
 51
352.819244
  0
LINE
  5
FA
330
1E
100
AcDbEntity
  8
CSLAYER1
  6
CONTINUOUS
 62
     3
100
AcDbLine
 10
55.34466899999999
 20
73.0
 30
0.0
 11
59.8446689999999
 21
73.0
 31
0.0
  0
ARC
  5
FB
330
1E
100
AcDbEntity
  8
CSLAYER1
  6
CONTINUOUS
 62
     3
100
AcDbCircle
 10
59.8446689999999
 20
68.0
 30
0.0
 40
5.0
100
AcDbArc
 50
11.53695899999999
 51
90.0
  0
ARC
  5
FC
330
1E
100
AcDbEntity
  8
CSLAYER1
  6
CONTINUOUS
 62
     3
100
AcDbCircle
 10
55.34466899999999
 20
68.0
 30
0.0
 40
5.0
100
AcDbArc
 50
90.0
 51
145.0
  0
LINE
  5
FD
330
1E
100
AcDbEntity
  8
CSLAYER1
  6
CONTINUOUS
 62
     3
100
AcDbLine
 10
49.9410035
 20
64.0
 30
0.0
 11
54.9410035
 21
59.0
 31
0.0
  0
LINE
  5
100
330
1E
100
AcDbEntity
  8
CSLAYER1
  6
CONTINUOUS
 62
     3
100
AcDbLine
 10
54.9410035
 20
43.5
 30
0.0
 11
54.9410035
 21
34.5
 31
0.0
  0
LINE
  5
104
330
1E
100
AcDbEntity
  8
CSLAYER1
  6
CONTINUOUS
 62
     3
100
AcDbLine
 10
18.10824799999999
 20
23.13979049999999
 30
0.0
 11
17.723633
 21
18.1546055
 31
0.0
  0
LINE
  5
105
330
1E
100
AcDbEntity
  8
CSLAYER1
  6
CONTINUOUS
 62
     3
100
AcDbLine
 10
43.64659550000001
 20
26.184323
 30
0.0
 11
23.4780485
 21
27.74036
 31
0.0
  0
LINE
  5
106
330
1E
100
AcDbEntity
  8
CSLAYER1
  6
CONTINUOUS
 62
     3
100
AcDbLine
 10
19.17134599999999
 20
19.91634499999999
 30
0.0
 11
17.723633
 21
18.1546055
 31
0.0
  0
LINE
  5
107
330
1E
100
AcDbEntity
  8
CSLAYER1
  6
CONTINUOUS
 62
     3
100
AcDbLine
 10
32.139647
 20
18.311051
 30
0.0
 11
35.44389199999999
 21
26.7374145
 31
0.0
  0
ARC
  5
108
330
1E
100
AcDbEntity
  8
CSLAYER1
  6
CONTINUOUS
 62
     3
100
AcDbCircle
 10
43.64659550000001
 20
16.15460549999999
 30
0.0
 40
10.5
100
AcDbArc
 50
112.1645159999999
 51
178.247175
  0
CIRCLE
  5
109
330
1E
100
AcDbEntity
  8
CSLAYER1
  6
CONTINUOUS
 62
     3
100
AcDbCircle
 10
43.64659550000001
 20
16.15460549999999
 30
0.0
 40
2.049999999999998
  0
CIRCLE
  5
10A
330
1E
100
AcDbEntity
  8
CSLAYER1
  6
CONTINUOUS
 62
     3
100
AcDbCircle
 10
43.64659550000001
 20
16.15460549999999
 30
0.0
 40
6.4
  0
LINE
  5
10B
330
1E
100
AcDbEntity
  8
CSLAYER1
  6
CENTER
 62
     4
100
AcDbLine
 10
43.64659550000001
 20
3.1085525
 30
0.0
 11
43.64659550000001
 21
29.9546055
 31
0.0
  0
LINE
  5
10C
330
1E
100
AcDbEntity
  8
CSLAYER1
  6
CENTER
 62
     4
100
AcDbLine
 10
15.20959549999999
 20
16.15460549999999
 30
0.0
 11
53.0945725
 21
16.15460549999999
 31
0.0
  0
LINE
  5
10D
330
1E
100
AcDbEntity
  8
CSLAYER1
  6
CONTINUOUS
 62
     3
100
AcDbLine
 10
18.10824799999999
 20
23.13979049999999
 30
0.0
 11
23.4780485
 21
27.74036
 31
0.0
  0
ARC
  5
10E
330
1E
100
AcDbEntity
  8
CSLAYER1
  6
CONTINUOUS
 62
     3
100
AcDbCircle
 10
31.65221049999999
 20
16.5216585
 30
0.0
 40
1.5
100
AcDbArc
 50
303.4722049999998
 51
358.247175
  0
LINE
  5
10F
330
1E
100
AcDbEntity
  8
CSLAYER1
  6
CONTINUOUS
 62
     3
100
AcDbLine
 10
23.4189795
 20
21.727087
 30
0.0
 11
27.905646
 21
21.38093299999999
 31
0.0
  0
ARC
  5
110
330
1E
100
AcDbEntity
  8
CSLAYER1
  6
CONTINUOUS
 62
     3
100
AcDbCircle
 10
27.521031
 20
16.395748
 30
0.0
 40
5.0
100
AcDbArc
 50
7.389094
 51
85.588274
  0
ARC
  5
111
330
1E
100
AcDbEntity
  8
CSLAYER1
  6
CONTINUOUS
 62
     3
100
AcDbCircle
 10
23.034364
 20
16.7419015
 30
0.0
 40
5.0
100
AcDbArc
 50
85.588274
 51
140.588274
  0
LINE
  5
112
330
1E
100
AcDbEntity
  8
CSLAYER1
  6
CONTINUOUS
 62
     3
100
AcDbLine
 10
18.10824799999999
 20
9.16942
 30
0.0
 11
17.723633
 21
14.15460549999999
 31
0.0
  0
LINE
  5
113
330
1E
100
AcDbEntity
  8
CSLAYER1
  6
CONTINUOUS
 62
     3
100
AcDbLine
 10
52.3921225
 20
6.7996195
 30
0.0
 11
23.4780485
 21
4.568850499999999
 31
0.0
  0
LINE
  5
114
330
1E
100
AcDbEntity
  8
CSLAYER1
  6
CONTINUOUS
 62
     3
100
AcDbLine
 10
19.17134599999999
 20
12.3928655
 30
0.0
 11
17.723633
 21
14.15460549999999
 31
0.0
  0
LINE
  5
115
330
1E
100
AcDbEntity
  8
CSLAYER1
  6
CONTINUOUS
 62
     3
100
AcDbLine
 10
18.10824799999999
 20
9.16942
 30
0.0
 11
23.4780485
 21
4.568850499999999
 31
0.0
  0
LINE
  5
116
330
1E
100
AcDbEntity
  8
CSLAYER1
  6
CONTINUOUS
 62
     3
100
AcDbLine
 10
23.4189795
 20
10.5821235
 30
0.0
 11
27.905646
 21
10.9282775
 31
0.0
  0
ARC
  5
117
330
1E
100
AcDbEntity
  8
CSLAYER1
  6
CONTINUOUS
 62
     3
100
AcDbCircle
 10
27.521031
 20
15.91346249999999
 30
0.0
 40
5.0
100
AcDbArc
 50
274.4117259999999
 51
352.610906
  0
ARC
  5
118
330
1E
100
AcDbEntity
  8
CSLAYER1
  6
CONTINUOUS
 62
     3
100
AcDbCircle
 10
23.034364
 20
15.56730899999999
 30
0.0
 40
5.0
100
AcDbArc
 50
219.411726
 51
274.4117259999999
  0
ARC
  5
119
330
1E
100
AcDbEntity
  8
CSLAYER1
  6
CONTINUOUS
 62
     3
100
AcDbCircle
 10
31.65221049999999
 20
15.78755199999999
 30
0.0
 40
1.5
100
AcDbArc
 50
14.164242
 51
56.527795
  0
LINE
  5
11A
330
1E
100
AcDbEntity
  8
CSLAYER1
  6
CONTINUOUS
 62
     3
100
AcDbLine
 10
49.276721
 20
26.6186965
 30
0.0
 11
39.68528900000001
 21
25.8787015
 31
0.0
  0
LINE
  5
11C
330
1E
100
AcDbEntity
  8
CSLAYER1
  6
DOT
 62
     3
100
AcDbLine
 10
2.5
 20
0.5
 30
0.0
 11
142.0
 21
0.5
 31
0.0
  0
LINE
  5
11D
330
1E
100
AcDbEntity
  8
CSLAYER1
  6
DOT
 62
     3
100
AcDbLine
 10
142.0
 20
0.5
 30
0.0
 11
142.0
 21
97.5
 31
0.0
  0
LINE
  5
11E
330
1E
100
AcDbEntity
  8
CSLAYER1
  6
DOT
 62
     3
100
AcDbLine
 10
142.0
 20
97.5
 30
0.0
 11
2.5
 21
97.5
 31
0.0
  0
LINE
  5
11F
330
1E
100
AcDbEntity
  8
CSLAYER1
  6
DOT
 62
     3
100
AcDbLine
 10
2.5
 20
97.5
 30
0.0
 11
2.5
 21
0.5
 31
0.0
  0
LINE
  5
120
330
1E
100
AcDbEntity
  8
CSLAYER1
  6
DOT
 62
     3
100
AcDbLine
 10
142.0
 20
49.0
 30
0.0
 11
144.0
 21
49.0
 31
0.0
  0
LINE
  5
121
330
1E
100
AcDbEntity
  8
CSLAYER1
  6
DOT
 62
     3
100
AcDbLine
 10
72.25
 20
97.5
 30
0.0
 11
72.25
 21
99.50000000000001
 31
0.0
  0
LINE
  5
122
330
1E
100
AcDbEntity
  8
CSLAYER1
  6
DOT
 62
     3
100
AcDbLine
 10
2.5
 20
49.0
 30
0.0
 11
0.5
 21
49.0
 31
0.0
  0
TEXT
  5
164
330
1E
100
AcDbEntity
  8
CSLAYER1
 62
     4
100
AcDbText
 10
61.441002
 20
89.71212750000001
 30
0.0
 40
1.5
  1
26
 41
1.199999999999997
 51
15.0
  7
FX_FONT
 72
     5
 11
64.441002
 21
89.71212750000001
 31
0.0
100
AcDbText
  0
LINE
  5
165
330
1E
100
AcDbEntity
  8
CSLAYER1
 62
     4
100
AcDbLine
 10
49.9410035
 20
89.21212499999995
 30
0.0
 11
75.94100350000001
 21
89.21212499999995
 31
0.0
  0
LINE
  5
166
330
1E
100
AcDbEntity
  8
CSLAYER1
 62
     4
100
AcDbLine
 10
49.9410035
 20
89.21212499999995
 30
0.0
 11
51.38989199999995
 21
89.60035349999996
 31
0.0
  0
LINE
  5
167
330
1E
100
AcDbEntity
  8
CSLAYER1
 62
     4
100
AcDbLine
 10
49.9410035
 20
89.21212499999995
 30
0.0
 11
51.38989199999995
 21
88.8238965
 31
0.0
  0
LINE
  5
168
330
1E
100
AcDbEntity
  8
CSLAYER1
 62
     4
100
AcDbLine
 10
75.94100350000001
 20
89.21212499999995
 30
0.0
 11
74.49211449999999
 21
89.60035349999996
 31
0.0
  0
LINE
  5
169
330
1E
100
AcDbEntity
  8
CSLAYER1
 62
     4
100
AcDbLine
 10
75.94100350000001
 20
89.21212499999995
 30
0.0
 11
74.49211449999999
 21
88.8238965
 31
0.0
  0
LINE
  5
16A
330
1E
100
AcDbEntity
  8
CSLAYER1
 62
     4
100
AcDbLine
 10
49.9410035
 20
74.5
 30
0.0
 11
49.9410035
 21
89.712125
 31
0.0
  0
LINE
  5
16B
330
1E
100
AcDbEntity
  8
CSLAYER1
 62
     4
100
AcDbLine
 10
75.94100350000001
 20
83.29999999999996
 30
0.0
 11
75.94100350000001
 21
89.712125
 31
0.0
  0
TEXT
  5
16C
330
1E
100
AcDbEntity
  8
CSLAYER1
 62
     4
100
AcDbText
 10
42.2567215
 20
65.24999999999995
 30
0.0
 40
1.5
  1
20~21
 50
90.0
 41
1.111111111111117
 51
15.0
  7
FX_FONT
 72
     5
 11
42.2567215
 21
72.75
 31
0.0
100
AcDbText
  0
LINE
  5
16D
330
1E
100
AcDbEntity
  8
CSLAYER1
 62
     4
100
AcDbLine
 10
54.4410035
 20
59.0
 30
0.0
 11
42.2567175
 21
59.0
 31
0.0
  0
LINE
  5
16E
330
1E
100
AcDbEntity
  8
CSLAYER1
 62
     4
100
AcDbLine
 10
54.4410035
 20
79.0
 30
0.0
 11
42.2567175
 21
79.0
 31
0.0
  0
LINE
  5
16F
330
1E
100
AcDbEntity
  8
CSLAYER1
 62
     4
100
AcDbLine
 10
42.75671749999999
 20
59.0
 30
0.0
 11
42.75671749999999
 21
79.0
 31
0.0
  0
LINE
  5
170
330
1E
100
AcDbEntity
  8
CSLAYER1
 62
     4
100
AcDbLine
 10
42.75671749999999
 20
59.0
 30
0.0
 11
42.368489
 21
60.4488885
 31
0.0
  0
LINE
  5
171
330
1E
100
AcDbEntity
  8
CSLAYER1
 62
     4
100
AcDbLine
 10
42.75671749999999
 20
59.0
 30
0.0
 11
43.1449465
 21
60.4488885
 31
0.0
  0
LINE
  5
172
330
1E
100
AcDbEntity
  8
CSLAYER1
 62
     4
100
AcDbLine
 10
42.75671749999999
 20
79.0
 30
0.0
 11
42.368489
 21
77.55111150000001
 31
0.0
  0
LINE
  5
173
330
1E
100
AcDbEntity
  8
CSLAYER1
 62
     4
100
AcDbLine
 10
42.75671749999999
 20
79.0
 30
0.0
 11
43.1449465
 21
77.55111150000001
 31
0.0
  0
TEXT
  5
174
330
1E
100
AcDbEntity
  8
CSLAYER1
 62
     4
100
AcDbText
 10
45.25672150000001
 20
67.5
 30
0.0
 40
1.5
  1
10
 50
90.0
 41
1.199999999999999
 51
15.0
  7
FX_FONT
 72
     5
 11
45.25672150000001
 21
70.5
 31
0.0
100
AcDbText
  0
LINE
  5
175
330
1E
100
AcDbEntity
  8
CSLAYER1
 62
     4
100
AcDbLine
 10
49.4410035
 20
64.0
 30
0.0
 11
45.25671749999999
 21
64.0
 31
0.0
  0
LINE
  5
176
330
1E
100
AcDbEntity
  8
CSLAYER1
 62
     4
100
AcDbLine
 10
49.4410035
 20
74.0
 30
0.0
 11
45.25671749999999
 21
74.0
 31
0.0
  0
LINE
  5
177
330
1E
100
AcDbEntity
  8
CSLAYER1
 62
     4
100
AcDbLine
 10
45.7567175
 20
64.0
 30
0.0
 11
45.7567175
 21
74.0
 31
0.0
  0
LINE
  5
178
330
1E
100
AcDbEntity
  8
CSLAYER1
 62
     4
100
AcDbLine
 10
45.7567175
 20
64.0
 30
0.0
 11
45.36848899999999
 21
65.44888849999999
 31
0.0
  0
LINE
  5
179
330
1E
100
AcDbEntity
  8
CSLAYER1
 62
     4
100
AcDbLine
 10
45.7567175
 20
64.0
 30
0.0
 11
46.1449465
 21
65.44888849999999
 31
0.0
  0
LINE
  5
17A
330
1E
100
AcDbEntity
  8
CSLAYER1
 62
     4
100
AcDbLine
 10
45.7567175
 20
74.0
 30
0.0
 11
45.36848899999999
 21
72.55111150000001
 31
0.0
  0
LINE
  5
17B
330
1E
100
AcDbEntity
  8
CSLAYER1
 62
     4
100
AcDbLine
 10
45.7567175
 20
74.0
 30
0.0
 11
46.1449465
 21
72.55111150000001
 31
0.0
  0
TEXT
  5
17C
330
1E
100
AcDbEntity
  8
CSLAYER1
 62
     4
100
AcDbText
 10
57.678238
 20
69.5165175
 30
0.0
 40
1.5
  1
8
 50
90.0
 41
1.5
 51
15.0
  7
FX_FONT
 72
     5
 11
57.678238
 21
71.01651750000001
 31
0.0
100
AcDbText
  0
LINE
  5
17D
330
1E
100
AcDbEntity
  8
CSLAYER1
 62
     4
100
AcDbLine
 10
58.178238
 20
65.0
 30
0.0
 11
58.178238
 21
73.0
 31
0.0
  0
LINE
  5
17E
330
1E
100
AcDbEntity
  8
CSLAYER1
 62
     4
100
AcDbLine
 10
58.178238
 20
65.0
 30
0.0
 11
57.79000899999996
 21
66.44888849999995
 31
0.0
  0
LINE
  5
17F
330
1E
100
AcDbEntity
  8
CSLAYER1
 62
     4
100
AcDbLine
 10
58.178238
 20
65.0
 30
0.0
 11
58.5664665
 21
66.44888849999995
 31
0.0
  0
LINE
  5
180
330
1E
100
AcDbEntity
  8
CSLAYER1
 62
     4
100
AcDbLine
 10
58.178238
 20
73.0
 30
0.0
 11
57.79000899999996
 21
71.5511115
 31
0.0
  0
LINE
  5
181
330
1E
100
AcDbEntity
  8
CSLAYER1
 62
     4
100
AcDbLine
 10
58.178238
 20
73.0
 30
0.0
 11
58.5664665
 21
71.5511115
 31
0.0
  0
TEXT
  5
182
330
1E
100
AcDbEntity
  8
CSLAYER1
 62
     4
100
AcDbText
 10
52.842327
 20
56.02909849999996
 30
0.0
 40
1.5
  1
(14.8)
 41
1.125
 51
15.0
  7
FX_FONT
 72
     5
 11
61.842327
 21
56.02909849999996
 31
0.0
100
AcDbText
  0
LINE
  5
183
330
1E
100
AcDbEntity
  8
CSLAYER1
 62
     4
100
AcDbLine
 10
49.9410035
 20
55.52909849999995
 30
0.0
 11
64.74364849999995
 21
55.52909849999995
 31
0.0
  0
LINE
  5
184
330
1E
100
AcDbEntity
  8
CSLAYER1
 62
     4
100
AcDbLine
 10
49.9410035
 20
55.52909849999995
 30
0.0
 11
51.38989199999995
 21
55.9173275
 31
0.0
  0
LINE
  5
185
330
1E
100
AcDbEntity
  8
CSLAYER1
 62
     4
100
AcDbLine
 10
49.9410035
 20
55.52909849999995
 30
0.0
 11
51.38989199999995
 21
55.14086999999995
 31
0.0
  0
LINE
  5
186
330
1E
100
AcDbEntity
  8
CSLAYER1
 62
     4
100
AcDbLine
 10
64.74364849999995
 20
55.52909849999995
 30
0.0
 11
63.29475949999995
 21
55.9173275
 31
0.0
  0
LINE
  5
187
330
1E
100
AcDbEntity
  8
CSLAYER1
 62
     4
100
AcDbLine
 10
64.74364849999995
 20
55.52909849999995
 30
0.0
 11
63.29475949999995
 21
55.14086999999995
 31
0.0
  0
LINE
  5
188
330
1E
100
AcDbEntity
  8
CSLAYER1
 62
     4
100
AcDbLine
 10
49.9410035
 20
63.5
 30
0.0
 11
49.9410035
 21
55.02909849999995
 31
0.0
  0
LINE
  5
189
330
1E
100
AcDbEntity
  8
CSLAYER1
 62
     4
100
AcDbLine
 10
64.74364849999995
 20
68.5
 30
0.0
 11
64.74364849999995
 21
55.02909849999995
 31
0.0
  0
LINE
  5
18A
330
1E
100
AcDbEntity
  8
CSLAYER1
  6
CONTINUOUS
 62
     4
100
AcDbLine
 10
75.34164150000001
 20
67.0395755
 30
0.0
 11
70.78657599999999
 21
50.03984
 31
0.0
  0
LINE
  5
18B
330
1E
100
AcDbEntity
  8
CSLAYER1
  6
CONTINUOUS
 62
     4
100
AcDbLine
 10
75.34164150000001
 20
67.0395755
 30
0.0
 11
75.34164150000001
 21
65.53957549999999
 31
0.0
  0
LINE
  5
18C
330
1E
100
AcDbEntity
  8
CSLAYER1
  6
CONTINUOUS
 62
     4
100
AcDbLine
 10
75.34164150000001
 20
67.0395755
 30
0.0
 11
74.59164150000001
 21
65.740537
 31
0.0
  0
LINE
  5
18D
330
1E
100
AcDbEntity
  8
CSLAYER1
  6
CONTINUOUS
 62
     4
100
AcDbLine
 10
70.78657599999999
 20
50.03984
 30
0.0
 11
63.786576
 21
50.03984
 31
0.0
  0
TEXT
  5
18E
330
1E
100
AcDbEntity
  8
CSLAYER1
 62
     4
100
AcDbText
 10
64.28657549999996
 20
50.53984049999995
 30
0.0
 40
1.5
  1
%%c4.1
 41
1.142857142857151
 51
15.0
  7
FX_FONT
 72
     5
 11
70.2865755
 21
50.53984049999995
 31
0.0
100
AcDbText
  0
TEXT
  5
18F
330
1E
100
AcDbEntity
  8
CSLAYER1
 62
     4
100
AcDbText
 10
45.09999849999999
 20
38.515606
 30
0.0
 40
1.5
  1
9  
 50
90.0
 41
1.363636363636363
 51
15.0
  7
FX_FONT
 72
     5
 11
45.09999849999999
 21
43.015606
 31
0.0
100
AcDbText
  0
TEXT
  5
190
330
1E
100
AcDbEntity
  8
CSLAYER1
 62
     4
100
AcDbText
 10
44.34999849999999
 20
43.015606
 30
0.0
 40
0.75
  1
  0
 50
90.0
 41
1.607142857142857
 51
15.0
  7
FX_FONT
 72
     5
 11
44.34999849999999
 21
45.26560599999999
 31
0.0
100
AcDbText
  0
TEXT
  5
191
330
1E
100
AcDbEntity
  8
CSLAYER1
 62
     4
100
AcDbText
 10
45.09999849999999
 20
43.015606
 30
0.0
 40
0.75
  1
-0.15
 50
90.0
 41
1.071428571428571
 51
15.0
  7
FX_FONT
 72
     5
 11
45.09999849999999
 21
46.765606
 31
0.0
100
AcDbText
  0
LINE
  5
192
330
1E
100
AcDbEntity
  8
CSLAYER1
 62
     4
100
AcDbLine
 10
49.4410035
 20
34.5
 30
0.0
 11
45.2057175
 21
34.5
 31
0.0
  0
LINE
  5
193
330
1E
100
AcDbEntity
  8
CSLAYER1
 62
     4
100
AcDbLine
 10
49.4410035
 20
43.5
 30
0.0
 11
45.2057175
 21
43.5
 31
0.0
  0
LINE
  5
194
330
1E
100
AcDbEntity
  8
CSLAYER1
 62
     4
100
AcDbLine
 10
45.7057175
 20
34.5
 30
0.0
 11
45.7057175
 21
43.5
 31
0.0
  0
LINE
  5
195
330
1E
100
AcDbEntity
  8
CSLAYER1
 62
     4
100
AcDbLine
 10
45.7057175
 20
34.5
 30
0.0
 11
45.317489
 21
35.9488885
 31
0.0
  0
LINE
  5
196
330
1E
100
AcDbEntity
  8
CSLAYER1
 62
     4
100
AcDbLine
 10
45.7057175
 20
34.5
 30
0.0
 11
46.0939465
 21
35.9488885
 31
0.0
  0
LINE
  5
197
330
1E
100
AcDbEntity
  8
CSLAYER1
 62
     4
100
AcDbLine
 10
45.7057175
 20
43.5
 30
0.0
 11
45.317489
 21
42.05111149999999
 31
0.0
  0
LINE
  5
198
330
1E
100
AcDbEntity
  8
CSLAYER1
 62
     4
100
AcDbLine
 10
45.7057175
 20
43.5
 30
0.0
 11
46.0939465
 21
42.05111149999999
 31
0.0
  0
TEXT
  5
199
330
1E
100
AcDbEntity
  8
CSLAYER1
 62
     4
100
AcDbText
 10
10.6704255
 20
15.404606
 30
0.0
 40
1.5
  1
4
 50
90.0
 41
1.500000000000001
 51
15.0
  7
FX_FONT
 72
     5
 11
10.6704255
 21
16.904606
 31
0.0
100
AcDbText
  0
LINE
  5
19A
330
1E
100
AcDbEntity
  8
CSLAYER1
 62
     4
100
AcDbLine
 10
11.1704255
 20
14.15460549999999
 30
0.0
 11
11.1704255
 21
18.1546055
 31
0.0
  0
LINE
  5
19B
330
1E
100
AcDbEntity
  8
CSLAYER1
 62
     4
100
AcDbLine
 10
11.1704255
 20
14.15460549999999
 30
0.0
 11
10.782197
 21
15.60349399999999
 31
0.0
  0
LINE
  5
19C
330
1E
100
AcDbEntity
  8
CSLAYER1
 62
     4
100
AcDbLine
 10
11.1704255
 20
14.15460549999999
 30
0.0
 11
11.55865399999999
 21
15.60349399999999
 31
0.0
  0
LINE
  5
19D
330
1E
100
AcDbEntity
  8
CSLAYER1
 62
     4
100
AcDbLine
 10
11.1704255
 20
18.1546055
 30
0.0
 11
10.782197
 21
16.7057165
 31
0.0
  0
LINE
  5
19E
330
1E
100
AcDbEntity
  8
CSLAYER1
 62
     4
100
AcDbLine
 10
11.1704255
 20
18.1546055
 30
0.0
 11
11.55865399999999
 21
16.7057165
 31
0.0
  0
LINE
  5
19F
330
1E
100
AcDbEntity
  8
CSLAYER1
 62
     4
100
AcDbLine
 10
17.223633
 20
14.15460549999999
 30
0.0
 11
10.6704255
 21
14.15460549999999
 31
0.0
  0
LINE
  5
1A0
330
1E
100
AcDbEntity
  8
CSLAYER1
 62
     4
100
AcDbLine
 10
17.223633
 20
18.1546055
 30
0.0
 11
10.6704255
 21
18.1546055
 31
0.0
  0
ENDSEC
  0
SECTION
  2
OBJECTS
  0
DICTIONARY
  5
C
330
0
100
AcDbDictionary
  3
ACAD_GROUP
350
D
  3
ACAD_LAYOUT
350
19
  3
ACAD_MLINESTYLE
350
16
  3
ACAD_PLOTSETTINGS
350
18
1001
ACAD
1000
TREAT_AS_HARD
1070
     0
1000
TREAT_AS_HARD
1070
     0
1000
TREAT_AS_HARD
1070
     0
  0
DICTIONARY
  5
12C
330
1E
100
AcDbDictionary
  3
ACAD_LAYOUTSELFREF
350
1A5
1001
ACAD
1000
TREAT_AS_HARD
1070
     0
1000
TREAT_AS_HARD
1070
     0
  0
DICTIONARY
  5
12A
330
1A
100
AcDbDictionary
  3
ACAD_LAYOUTSELFREF
350
1A4
1001
ACAD
1000
TREAT_AS_HARD
1070
     0
1000
TREAT_AS_HARD
1070
     0
  0
DICTIONARY
  5
D
102
{ACAD_REACTORS
330
C
102
}
330
C
100
AcDbDictionary
1001
ACAD
1000
TREAT_AS_HARD
1070
     0
1000
TREAT_AS_HARD
1070
     0
1000
TREAT_AS_HARD
1070
     0
  0
DICTIONARY
  5
19
102
{ACAD_REACTORS
330
C
102
}
330
C
100
AcDbDictionary
1001
ACAD
1000
TREAT_AS_HARD
1070
     0
1000
TREAT_AS_HARD
1070
     0
1000
TREAT_AS_HARD
1070
     0
  0
DICTIONARY
  5
16
102
{ACAD_REACTORS
330
C
102
}
330
C
100
AcDbDictionary
  3
STANDARD
350
17
1001
ACAD
1000
TREAT_AS_HARD
1070
     0
1000
TREAT_AS_HARD
1070
     0
1000
TREAT_AS_HARD
1070
     0
  0
DICTIONARY
  5
18
102
{ACAD_REACTORS
330
C
102
}
330
C
100
AcDbDictionary
1001
ACAD
1000
TREAT_AS_HARD
1070
     0
1000
TREAT_AS_HARD
1070
     0
1000
TREAT_AS_HARD
1070
     0
  0
XRECORD
  5
1A5
102
{ACAD_REACTORS
330
12C
102
}
330
12C
100
AcDbXrecord
340
1E
  0
XRECORD
  5
1A4
102
{ACAD_REACTORS
330
12A
102
}
330
12A
100
AcDbXrecord
340
1A
  0
MLINESTYLE
  5
17
102
{ACAD_REACTORS
330
16
102
}
330
16
100
AcDbMlineStyle
  2
STANDARD
 70
     0
  3

 62
   256
 51
90.0
 52
90.0
 71
     2
 49
0.5
 62
   256
  6
BYLAYER
 49
-0.5
 62
   256
  6
BYLAYER
  0
ENDSEC
  0
EOF
