  0
SECTION
  2
HEADER
  9
$ACADVER
  1
AC1012
  9
$DWGCODEPAGE
  3
dos932
  9
$INSBASE
 10
0.0
 20
0.0
 30
0.0
  9
$EXTMIN
 10
0.4894416100455601
 20
0.4902653820932415
 30
-0.0000000349181948
  9
$EXTMAX
 10
144.0134587653603
 20
99.50454747945139
 30
0.0000000814935747
  9
$LIMMIN
 10
0.0
 20
0.0
  9
$LIMMAX
 10
297.0
 20
210.0
  9
$ORTHOMODE
 70
     0
  9
$REGENMODE
 70
     1
  9
$FILLMODE
 70
     1
  9
$QTEXTMODE
 70
     0
  9
$MIRRTEXT
 70
     1
  9
$DRAGMODE
 70
     2
  9
$LTSCALE
 40
15.0
  9
$OSMODE
 70
    37
  9
$ATTMODE
 70
     1
  9
$TEXTSIZE
 40
0.2
  9
$TRACEWID
 40
0.05
  9
$TEXTSTYLE
  7
GOTHIC
  9
$CLAYER
  8
CSLAYER1
  9
$CELTYPE
  6
BYLAYER
  9
$CECOLOR
 62
   256
  9
$CELTSCALE
 40
1.0
  9
$DELOBJ
 70
     1
  9
$DISPSILH
 70
     0
  9
$DIMSCALE
 40
1.0
  9
$DIMASZ
 40
0.18
  9
$DIMEXO
 40
0.0625
  9
$DIMDLI
 40
0.38
  9
$DIMRND
 40
0.0
  9
$DIMDLE
 40
0.0
  9
$DIMEXE
 40
0.18
  9
$DIMTP
 40
0.0
  9
$DIMTM
 40
0.0
  9
$DIMTXT
 40
0.18
  9
$DIMCEN
 40
0.09
  9
$DIMTSZ
 40
0.0
  9
$DIMTOL
 70
     0
  9
$DIMLIM
 70
     0
  9
$DIMTIH
 70
     1
  9
$DIMTOH
 70
     1
  9
$DIMSE1
 70
     0
  9
$DIMSE2
 70
     0
  9
$DIMTAD
 70
     0
  9
$DIMZIN
 70
     0
  9
$DIMBLK
  1

  9
$DIMASO
 70
     1
  9
$DIMSHO
 70
     1
  9
$DIMPOST
  1

  9
$DIMAPOST
  1

  9
$DIMALT
 70
     0
  9
$DIMALTD
 70
     2
  9
$DIMALTF
 40
25.4
  9
$DIMLFAC
 40
1.0
  9
$DIMTOFL
 70
     0
  9
$DIMTVP
 40
0.0
  9
$DIMTIX
 70
     0
  9
$DIMSOXD
 70
     0
  9
$DIMSAH
 70
     0
  9
$DIMBLK1
  1

  9
$DIMBLK2
  1

  9
$DIMSTYLE
  2
STANDARD
  9
$DIMCLRD
 70
     0
  9
$DIMCLRE
 70
     0
  9
$DIMCLRT
 70
     0
  9
$DIMTFAC
 40
1.0
  9
$DIMGAP
 40
0.09
  9
$DIMJUST
 70
     0
  9
$DIMSD1
 70
     0
  9
$DIMSD2
 70
     0
  9
$DIMTOLJ
 70
     1
  9
$DIMTZIN
 70
     0
  9
$DIMALTZ
 70
     0
  9
$DIMALTTZ
 70
     0
  9
$DIMFIT
 70
     3
  9
$DIMUPT
 70
     0
  9
$DIMUNIT
 70
     2
  9
$DIMDEC
 70
     4
  9
$DIMTDEC
 70
     4
  9
$DIMALTU
 70
     2
  9
$DIMALTTD
 70
     2
  9
$DIMTXSTY
  7
STANDARD
  9
$DIMAUNIT
 70
     0
  9
$LUNITS
 70
     2
  9
$LUPREC
 70
     4
  9
$SKETCHINC
 40
0.1
  9
$FILLETRAD
 40
0.0
  9
$AUNITS
 70
     0
  9
$AUPREC
 70
     0
  9
$MENU
  1
ACAD
  9
$ELEVATION
 40
0.0
  9
$PELEVATION
 40
0.0
  9
$THICKNESS
 40
0.0
  9
$LIMCHECK
 70
     0
  9
$BLIPMODE
 70
     1
  9
$CHAMFERA
 40
0.0
  9
$CHAMFERB
 40
0.0
  9
$CHAMFERC
 40
0.0
  9
$CHAMFERD
 40
0.0
  9
$SKPOLY
 70
     0
  9
$TDCREATE
 40
2453476.999999999
  9
$TDUPDATE
 40
2453575.545232847
  9
$TDINDWG
 40
0.0011392593
  9
$TDUSRTIMER
 40
0.0011392593
  9
$USRTIMER
 70
     1
  9
$ANGBASE
 50
0.0
  9
$ANGDIR
 70
     0
  9
$PDMODE
 70
     0
  9
$PDSIZE
 40
0.0
  9
$PLINEWID
 40
0.0
  9
$COORDS
 70
     0
  9
$SPLFRAME
 70
     0
  9
$SPLINETYPE
 70
     6
  9
$SPLINESEGS
 70
     8
  9
$ATTDIA
 70
     0
  9
$ATTREQ
 70
     1
  9
$HANDLING
 70
 22529
  9
$HANDSEED
  5
22B
  9
$SURFTAB1
 70
     6
  9
$SURFTAB2
 70
     6
  9
$SURFTYPE
 70
     6
  9
$SURFU
 70
     6
  9
$SURFV
 70
     6
  9
$UCSNAME
  2

  9
$UCSORG
 10
0.0
 20
0.0
 30
0.0
  9
$UCSXDIR
 10
1.0
 20
0.0
 30
0.0
  9
$UCSYDIR
 10
0.0
 20
1.0
 30
0.0
  9
$PUCSNAME
  2

  9
$PUCSORG
 10
0.0
 20
0.0
 30
0.0
  9
$PUCSXDIR
 10
1.0
 20
0.0
 30
0.0
  9
$PUCSYDIR
 10
0.0
 20
1.0
 30
0.0
  9
$USERI1
 70
     0
  9
$USERI2
 70
     0
  9
$USERI3
 70
     0
  9
$USERI4
 70
     0
  9
$USERI5
 70
     0
  9
$USERR1
 40
0.0
  9
$USERR2
 40
0.0
  9
$USERR3
 40
0.0
  9
$USERR4
 40
0.0
  9
$USERR5
 40
0.0
  9
$WORLDVIEW
 70
     1
  9
$SHADEDGE
 70
     3
  9
$SHADEDIF
 70
    70
  9
$TILEMODE
 70
     1
  9
$MAXACTVP
 70
    64
  9
$PINSBASE
 10
0.0
 20
0.0
 30
0.0
  9
$PLIMCHECK
 70
     0
  9
$PEXTMIN
 10
1.000000000000000E+20
 20
1.000000000000000E+20
 30
1.000000000000000E+20
  9
$PEXTMAX
 10
-1.000000000000000E+20
 20
-1.000000000000000E+20
 30
-1.000000000000000E+20
  9
$PLIMMIN
 10
0.0
 20
0.0
  9
$PLIMMAX
 10
12.0
 20
9.0
  9
$UNITMODE
 70
     0
  9
$VISRETAIN
 70
     1
  9
$PLINEGEN
 70
     0
  9
$PSLTSCALE
 70
     1
  9
$TREEDEPTH
 70
  3020
  9
$PICKSTYLE
 70
     3
  9
$CMLSTYLE
  2
STANDARD
  9
$CMLJUST
 70
     0
  9
$CMLSCALE
 40
1.0
  9
$SAVEIMAGES
 70
     1
  0
ENDSEC
  0
SECTION
  2
CLASSES
  0
CLASS
  1
ACDBDICTIONARYWDFLT
  2
AcDbDictionaryWithDefault
  3
AutoCAD 2000
 90
    32768
280
     0
281
     0
  0
CLASS
  1
ACDBPLACEHOLDER
  2
AcDbPlaceHolder
  3
AutoCAD 2000
 90
    32768
280
     0
281
     0
  0
CLASS
  1
LAYOUT
  2
AcDbLayout
  3
AutoCAD 2000
 90
    32768
280
     0
281
     0
  0
CLASS
  1
DICTIONARYVAR
  2
AcDbDictionaryVar
  3
AutoCAD 2000
 90
    32768
280
     0
281
     0
  0
CLASS
  1
LONG_TRANSACTION
  2
AcDbLongTransaction
  3
AutoCAD 2000
 90
    32768
280
     0
281
     0
  0
CLASS
  1
LWPOLYLINE
  2
AcDbPolyline
  3
AutoCAD 2000
 90
    32768
280
     0
281
     1
  0
CLASS
  1
HATCH
  2
AcDbHatch
  3
AutoCAD 2000
 90
    32768
280
     0
281
     1
  0
CLASS
  1
XRECORD
  2
AcDbXrecord
  3
AutoCAD 2000
 90
    32768
280
     0
281
     0
  0
CLASS
  1
LONG_TRANSACTION
  2
AcDbLongTransaction
  3
AutoCAD 2000
 90
    32768
280
     0
281
     0
  0
CLASS
  1
LWPOLYLINE
  2
AcDbPolyline
  3
AutoCAD 2000
 90
    32768
280
     0
281
     1
  0
CLASS
  1
HATCH
  2
AcDbHatch
  3
AutoCAD 2000
 90
    32768
280
     0
281
     1
  0
CLASS
  1
XRECORD
  2
AcDbXrecord
  3
AutoCAD 2000
 90
    32768
280
     0
281
     0
  0
CLASS
  1
LONG_TRANSACTION
  2
AcDbLongTransaction
  3
AutoCAD 2000
 90
    32768
280
     0
281
     0
  0
CLASS
  1
LWPOLYLINE
  2
AcDbPolyline
  3
AutoCAD 2000
 90
    32768
280
     0
281
     1
  0
CLASS
  1
HATCH
  2
AcDbHatch
  3
AutoCAD 2000
 90
    32768
280
     0
281
     1
  0
CLASS
  1
XRECORD
  2
AcDbXrecord
  3
AutoCAD 2000
 90
    32768
280
     0
281
     0
  0
ENDSEC
  0
SECTION
  2
TABLES
  0
TABLE
  2
VPORT
  5
8
330
0
100
AcDbSymbolTable
 70
     2
  0
VPORT
  5
228
330
8
100
AcDbSymbolTableRecord
100
AcDbViewportTableRecord
  2
*ACTIVE
 70
     0
 10
0.0
 20
0.0
 11
1.0
 21
1.0
 12
72.25145018770297
 22
49.99740643077231
 13
0.0
 23
0.0
 14
1.0
 24
1.0
 15
0.0
 25
0.0
 16
0.0
 26
0.0
 36
1.0
 17
0.0
 27
0.0
 37
0.0
 40
99.73264448258687
 41
1.458837772397094
 42
50.0
 43
0.0
 44
0.0
 50
0.0
 51
0.0
 71
     0
 72
   100
 73
     1
 74
     1
 75
     0
 76
     0
 77
     0
 78
     0
  0
ENDTAB
  0
TABLE
  2
LTYPE
  5
5
330
0
100
AcDbSymbolTable
 70
     4
  0
LTYPE
  5
13
330
5
100
AcDbSymbolTableRecord
100
AcDbLinetypeTableRecord
  2
BYBLOCK
 70
     0
  3

 72
    65
 73
     0
 40
0.0
  0
LTYPE
  5
14
330
5
100
AcDbSymbolTableRecord
100
AcDbLinetypeTableRecord
  2
BYLAYER
 70
     0
  3

 72
    65
 73
     0
 40
0.0
  0
LTYPE
  5
15
330
5
100
AcDbSymbolTableRecord
100
AcDbLinetypeTableRecord
  2
CONTINUOUS
 70
     0
  3
Solid line
 72
    65
 73
     0
 40
0.0
  0
LTYPE
  5
23
330
5
100
AcDbSymbolTableRecord
100
AcDbLinetypeTableRecord
  2
DASHED
 70
     0
  3
__ __ __ __ __ __ __ __ __ __ __ __ __ __ __
 72
    65
 73
     2
 40
0.75
 49
0.5
 74
     0
 49
-0.25
 74
     0
  0
LTYPE
  5
25
330
5
100
AcDbSymbolTableRecord
100
AcDbLinetypeTableRecord
  2
DOT
 70
     0
  3
...............................................
 72
    65
 73
     2
 40
0.25
 49
0.0
 74
     0
 49
-0.25
 74
     0
  0
LTYPE
  5
28
330
5
100
AcDbSymbolTableRecord
100
AcDbLinetypeTableRecord
  2
CENTER
 70
     0
  3
____ _ ____ _ ____ _ ____ _ ____ _ ____ _ ____ 
 72
    65
 73
     4
 40
2.0
 49
1.25
 74
     0
 49
-0.25
 74
     0
 49
0.25
 74
     0
 49
-0.25
 74
     0
  0
ENDTAB
  0
TABLE
  2
LAYER
  5
2
330
0
100
AcDbSymbolTable
 70
     3
  0
LAYER
  5
10
330
2
100
AcDbSymbolTableRecord
100
AcDbLayerTableRecord
  2
0
 70
     0
 62
     7
  6
CONTINUOUS
  0
LAYER
  5
22
330
2
100
AcDbSymbolTableRecord
100
AcDbLayerTableRecord
  2
CSLAYER1
 70
     0
 62
     7
  6
CONTINUOUS
  0
LAYER
  5
189
330
2
100
AcDbSymbolTableRecord
100
AcDbLayerTableRecord
  2
DEFPOINTS
 70
     0
 62
     7
  6
CONTINUOUS
  0
ENDTAB
  0
TABLE
  2
STYLE
  5
3
330
0
100
AcDbSymbolTable
 70
     3
  0
STYLE
  5
11
330
3
100
AcDbSymbolTableRecord
100
AcDbTextStyleTableRecord
  2
STANDARD
 70
     0
 40
0.0
 41
1.0
 50
0.0
 71
     0
 42
0.2
  3
txt
  4
extfont.shx
  0
STYLE
  5
3A
330
3
100
AcDbSymbolTableRecord
100
AcDbTextStyleTableRecord
  2
FX_FONT
 70
     0
 40
1.0
 41
1.0
 50
0.0
 71
     0
 42
1.0
  3
monotxt
  4
bigfont
  0
STYLE
  5
181
330
3
100
AcDbSymbolTableRecord
100
AcDbTextStyleTableRecord
  2
GOTHIC
 70
     0
 40
0.0
 41
1.0
 50
0.0
 71
     0
 42
0.2
  3
txt.shx
  4
extfont.shx
  0
ENDTAB
  0
TABLE
  2
VIEW
  5
6
330
0
100
AcDbSymbolTable
 70
     0
  0
ENDTAB
  0
TABLE
  2
UCS
  5
7
330
0
100
AcDbSymbolTable
 70
     0
  0
ENDTAB
  0
TABLE
  2
APPID
  5
9
330
0
100
AcDbSymbolTable
 70
     1
  0
APPID
  5
12
330
9
100
AcDbSymbolTableRecord
100
AcDbRegAppTableRecord
  2
ACAD
 70
     0
  0
ENDTAB
  0
TABLE
  2
DIMSTYLE
  5
A
330
0
100
AcDbSymbolTable
 70
     1
  0
DIMSTYLE
105
17E
330
A
100
AcDbSymbolTableRecord
100
AcDbDimStyleTableRecord
  2
STANDARD
 70
     0
  3

  4

  5

  6

  7

 40
1.0
 41
0.18
 42
0.0625
 43
0.38
 44
0.18
 45
0.0
 46
0.0
 47
0.0
 48
0.0
140
0.18
141
0.09
142
0.0
143
25.4
144
1.0
145
0.0
146
1.0
147
0.09
 71
     0
 72
     0
 73
     1
 74
     1
 75
     0
 76
     0
 77
     0
 78
     0
170
     0
171
     2
172
     0
173
     0
174
     0
175
     0
176
     0
177
     0
178
     0
270
     2
271
     4
272
     4
273
     2
274
     2
340
11
275
     0
280
     0
281
     0
282
     0
283
     1
284
     0
285
     0
286
     0
287
     3
288
     0
  0
ENDTAB
  0
TABLE
  2
BLOCK_RECORD
  5
1
330
0
100
AcDbSymbolTable
 70
    19
  0
BLOCK_RECORD
  5
1E
102
{ACAD_XDICTIONARY
360
187
102
}
330
1
100
AcDbSymbolTableRecord
100
AcDbBlockTableRecord
  2
*MODEL_SPACE
  0
BLOCK_RECORD
  5
1A
102
{ACAD_XDICTIONARY
360
185
102
}
330
1
100
AcDbSymbolTableRecord
100
AcDbBlockTableRecord
  2
*PAPER_SPACE
  0
BLOCK_RECORD
  5
3F
330
1
100
AcDbSymbolTableRecord
100
AcDbBlockTableRecord
  2
*D0
  0
BLOCK_RECORD
  5
4C
330
1
100
AcDbSymbolTableRecord
100
AcDbBlockTableRecord
  2
*D1
  0
BLOCK_RECORD
  5
57
330
1
100
AcDbSymbolTableRecord
100
AcDbBlockTableRecord
  2
FXDIM0000
  0
BLOCK_RECORD
  5
61
330
1
100
AcDbSymbolTableRecord
100
AcDbBlockTableRecord
  2
FXDIM0001
  0
BLOCK_RECORD
  5
6B
330
1
100
AcDbSymbolTableRecord
100
AcDbBlockTableRecord
  2
*D4
  0
BLOCK_RECORD
  5
75
330
1
100
AcDbSymbolTableRecord
100
AcDbBlockTableRecord
  2
FXDIM0002
  0
BLOCK_RECORD
  5
7D
330
1
100
AcDbSymbolTableRecord
100
AcDbBlockTableRecord
  2
*D6
  0
BLOCK_RECORD
  5
88
330
1
100
AcDbSymbolTableRecord
100
AcDbBlockTableRecord
  2
*D7
  0
BLOCK_RECORD
  5
95
330
1
100
AcDbSymbolTableRecord
100
AcDbBlockTableRecord
  2
*D8
  0
BLOCK_RECORD
  5
A0
330
1
100
AcDbSymbolTableRecord
100
AcDbBlockTableRecord
  2
*D9
  0
BLOCK_RECORD
  5
AA
330
1
100
AcDbSymbolTableRecord
100
AcDbBlockTableRecord
  2
*D10
  0
BLOCK_RECORD
  5
B5
330
1
100
AcDbSymbolTableRecord
100
AcDbBlockTableRecord
  2
*D11
  0
BLOCK_RECORD
  5
C2
330
1
100
AcDbSymbolTableRecord
100
AcDbBlockTableRecord
  2
*D12
  0
BLOCK_RECORD
  5
CD
330
1
100
AcDbSymbolTableRecord
100
AcDbBlockTableRecord
  2
*D13
  0
BLOCK_RECORD
  5
D4
330
1
100
AcDbSymbolTableRecord
100
AcDbBlockTableRecord
  2
*D14
  0
BLOCK_RECORD
  5
DF
330
1
100
AcDbSymbolTableRecord
100
AcDbBlockTableRecord
  2
*D15
  0
BLOCK_RECORD
  5
18A
330
1
100
AcDbSymbolTableRecord
100
AcDbBlockTableRecord
  2
*D16
  0
BLOCK_RECORD
  5
199
330
1
100
AcDbSymbolTableRecord
100
AcDbBlockTableRecord
  2
*D17
  0
BLOCK_RECORD
  5
1A8
330
1
100
AcDbSymbolTableRecord
100
AcDbBlockTableRecord
  2
*D18
  0
ENDTAB
  0
ENDSEC
  0
SECTION
  2
BLOCKS
  0
BLOCK
  5
1F
330
1E
100
AcDbEntity
  8
0
100
AcDbBlockBegin
  2
*MODEL_SPACE
 70
     0
 10
0.0
 20
0.0
 30
0.0
  3
*MODEL_SPACE
  1

  0
ENDBLK
  5
20
330
1E
100
AcDbEntity
  8
0
100
AcDbBlockEnd
  0
BLOCK
  5
1B
330
1A
100
AcDbEntity
 67
     1
  8
0
100
AcDbBlockBegin
  2
*PAPER_SPACE
 70
     0
 10
0.0
 20
0.0
 30
0.0
  3
*PAPER_SPACE
  1

  0
ENDBLK
  5
1C
330
1A
100
AcDbEntity
 67
     1
  8
0
100
AcDbBlockEnd
  0
BLOCK
  5
40
330
3F
100
AcDbEntity
  8
0
100
AcDbBlockBegin
  2
*D0
 70
     1
 10
0.0
 20
0.0
 30
0.0
  3
*D0
  1

  0
TEXT
  5
41
330
3F
100
AcDbEntity
  8
CSLAYER1
 62
     4
100
AcDbText
 10
81.953987
 20
78.09255199999999
 30
0.0
 40
3.0
  1
9   
 50
90.0
 41
1.42857142857143
 51
15.0
  7
FX_FONT
 72
     5
 11
81.953987
 21
90.092552
 31
0.0
100
AcDbText
  0
TEXT
  5
42
330
3F
100
AcDbEntity
  8
CSLAYER1
 62
     4
100
AcDbText
 10
80.45398699999998
 20
90.092552
 30
0.0
 40
1.5
  1
  0
 50
90.0
 41
1.607142857142857
 51
15.0
  7
FX_FONT
 72
     5
 11
80.45398699999998
 21
94.59255199999999
 31
0.0
100
AcDbText
  0
TEXT
  5
43
330
3F
100
AcDbEntity
  8
CSLAYER1
 62
     4
100
AcDbText
 10
81.953987
 20
90.092552
 30
0.0
 40
1.5
  1
-0.15
 50
90.0
 41
1.071428571428571
 51
15.0
  7
FX_FONT
 72
     5
 11
81.953987
 21
97.592552
 31
0.0
100
AcDbText
  0
LINE
  5
44
330
3F
100
AcDbEntity
  8
CSLAYER1
  6
CONTINUOUS
 62
     4
100
AcDbLine
 10
98.791448
 20
71.04254899999998
 30
0.0
 11
81.95398299999999
 21
71.04254899999998
 31
0.0
  0
LINE
  5
45
330
3F
100
AcDbEntity
  8
CSLAYER1
  6
CONTINUOUS
 62
     4
100
AcDbLine
 10
126.7914479999999
 20
89.04254899999996
 30
0.0
 11
81.95398299999999
 21
89.04254899999996
 31
0.0
  0
LINE
  5
46
330
3F
100
AcDbEntity
  8
CSLAYER1
  6
CONTINUOUS
 62
     4
100
AcDbLine
 10
82.953983
 20
71.04254899999998
 30
0.0
 11
82.953983
 21
89.04254899999996
 31
0.0
  0
LINE
  5
47
330
3F
100
AcDbEntity
  8
CSLAYER1
  6
CONTINUOUS
 62
     4
100
AcDbLine
 10
82.953983
 20
71.04254899999998
 30
0.0
 11
82.177526
 21
73.940326
 31
0.0
  0
LINE
  5
48
330
3F
100
AcDbEntity
  8
CSLAYER1
  6
CONTINUOUS
 62
     4
100
AcDbLine
 10
82.953983
 20
71.04254899999998
 30
0.0
 11
83.73044
 21
73.940326
 31
0.0
  0
LINE
  5
49
330
3F
100
AcDbEntity
  8
CSLAYER1
  6
CONTINUOUS
 62
     4
100
AcDbLine
 10
82.953983
 20
89.04254899999996
 30
0.0
 11
82.177526
 21
86.144771
 31
0.0
  0
LINE
  5
4A
330
3F
100
AcDbEntity
  8
CSLAYER1
  6
CONTINUOUS
 62
     4
100
AcDbLine
 10
82.953983
 20
89.04254899999996
 30
0.0
 11
83.73044
 21
86.144771
 31
0.0
  0
ENDBLK
  5
4B
330
3F
100
AcDbEntity
  8
0
100
AcDbBlockEnd
  0
BLOCK
  5
4D
330
4C
100
AcDbEntity
  8
0
100
AcDbBlockBegin
  2
*D1
 70
     1
 10
0.0
 20
0.0
 30
0.0
  3
*D1
  1

  0
TEXT
  5
4E
330
4C
100
AcDbEntity
  8
CSLAYER1
 62
     4
100
AcDbText
 10
137.7914429999999
 20
98.44255099999999
 30
0.0
 40
3.0
  1
13
 41
1.200000000000017
 51
15.0
  7
FX_FONT
 72
     5
 11
143.791443
 21
98.44255099999999
 31
0.0
100
AcDbText
  0
LINE
  5
4F
330
4C
100
AcDbEntity
  8
CSLAYER1
  6
CONTINUOUS
 62
     4
100
AcDbLine
 10
127.7914479999999
 20
90.04254899999997
 30
0.0
 11
127.7914479999999
 21
98.44254900000001
 31
0.0
  0
LINE
  5
50
330
4C
100
AcDbEntity
  8
CSLAYER1
  6
CONTINUOUS
 62
     4
100
AcDbLine
 10
153.7914479999999
 20
97.691692
 30
0.0
 11
153.7914479999999
 21
98.44254900000001
 31
0.0
  0
LINE
  5
51
330
4C
100
AcDbEntity
  8
CSLAYER1
  6
CONTINUOUS
 62
     4
100
AcDbLine
 10
127.7914479999999
 20
97.44254900000001
 30
0.0
 11
153.7914479999999
 21
97.44254900000001
 31
0.0
  0
LINE
  5
52
330
4C
100
AcDbEntity
  8
CSLAYER1
  6
CONTINUOUS
 62
     4
100
AcDbLine
 10
127.7914479999999
 20
97.44254900000001
 30
0.0
 11
130.6892249999999
 21
98.21900599999999
 31
0.0
  0
LINE
  5
53
330
4C
100
AcDbEntity
  8
CSLAYER1
  6
CONTINUOUS
 62
     4
100
AcDbLine
 10
127.7914479999999
 20
97.44254900000001
 30
0.0
 11
130.6892249999999
 21
96.66609200000001
 31
0.0
  0
LINE
  5
54
330
4C
100
AcDbEntity
  8
CSLAYER1
  6
CONTINUOUS
 62
     4
100
AcDbLine
 10
153.7914479999999
 20
97.44254900000001
 30
0.0
 11
150.8936699999999
 21
98.21900599999999
 31
0.0
  0
LINE
  5
55
330
4C
100
AcDbEntity
  8
CSLAYER1
  6
CONTINUOUS
 62
     4
100
AcDbLine
 10
153.7914479999999
 20
97.44254900000001
 30
0.0
 11
150.8936699999999
 21
96.66609200000001
 31
0.0
  0
ENDBLK
  5
56
330
4C
100
AcDbEntity
  8
0
100
AcDbBlockEnd
  0
BLOCK
  5
58
330
57
100
AcDbEntity
  8
0
100
AcDbBlockBegin
  2
FXDIM0000
 70
     0
 10
0.0
 20
0.0
 30
0.0
  3
FXDIM0000
  1

  0
LINE
  5
59
330
57
100
AcDbEntity
  8
CSLAYER1
  6
CONTINUOUS
 62
     4
100
AcDbLine
 10
165.791448
 20
89.04254899999996
 30
0.0
 11
167.791448
 21
92.50664999999999
 31
0.0
  0
LINE
  5
5A
330
57
100
AcDbEntity
  8
CSLAYER1
  6
CONTINUOUS
 62
     4
100
AcDbLine
 10
163.791448
 20
92.50664999999999
 30
0.0
 11
175.791448
 21
92.50664999999999
 31
0.0
  0
LINE
  5
5B
330
57
100
AcDbEntity
  8
CSLAYER1
  6
CONTINUOUS
 62
     4
100
AcDbLine
 10
163.791448
 20
92.50664999999999
 30
0.0
 11
165.791448
 21
89.04254899999996
 31
0.0
  0
LINE
  5
5C
330
57
100
AcDbEntity
  8
CSLAYER1
  6
CONTINUOUS
 62
     4
100
AcDbLine
 10
169.791448
 20
89.04254899999996
 30
0.0
 11
171.791448
 21
92.50664999999999
 31
0.0
  0
LINE
  5
5D
330
57
100
AcDbEntity
  8
CSLAYER1
  6
CONTINUOUS
 62
     4
100
AcDbLine
 10
167.791448
 20
92.50664999999999
 30
0.0
 11
169.791448
 21
89.04254899999996
 31
0.0
  0
LINE
  5
5E
330
57
100
AcDbEntity
  8
CSLAYER1
  6
CONTINUOUS
 62
     4
100
AcDbLine
 10
173.791448
 20
89.04254899999996
 30
0.0
 11
175.791448
 21
92.50664999999999
 31
0.0
  0
LINE
  5
5F
330
57
100
AcDbEntity
  8
CSLAYER1
  6
CONTINUOUS
 62
     4
100
AcDbLine
 10
171.791448
 20
92.50664999999999
 30
0.0
 11
173.791448
 21
89.04254899999996
 31
0.0
  0
ENDBLK
  5
60
330
57
100
AcDbEntity
  8
0
100
AcDbBlockEnd
  0
BLOCK
  5
62
330
61
100
AcDbEntity
  8
0
100
AcDbBlockBegin
  2
FXDIM0001
 70
     0
 10
0.0
 20
0.0
 30
0.0
  3
FXDIM0001
  1

  0
LINE
  5
63
330
61
100
AcDbEntity
  8
CSLAYER1
  6
CONTINUOUS
 62
     4
100
AcDbLine
 10
166.9914479999999
 20
71.04254899999998
 30
0.0
 11
164.9914479999999
 21
67.57844699999999
 31
0.0
  0
LINE
  5
64
330
61
100
AcDbEntity
  8
CSLAYER1
  6
CONTINUOUS
 62
     4
100
AcDbLine
 10
164.9914479999999
 20
67.57844699999999
 30
0.0
 11
176.9914479999999
 21
67.57844699999999
 31
0.0
  0
LINE
  5
65
330
61
100
AcDbEntity
  8
CSLAYER1
  6
CONTINUOUS
 62
     4
100
AcDbLine
 10
168.9914479999998
 20
67.57844699999999
 30
0.0
 11
166.9914479999999
 21
71.04254899999998
 31
0.0
  0
LINE
  5
66
330
61
100
AcDbEntity
  8
CSLAYER1
  6
CONTINUOUS
 62
     4
100
AcDbLine
 10
170.9914479999999
 20
71.04254899999998
 30
0.0
 11
168.9914479999998
 21
67.57844699999999
 31
0.0
  0
LINE
  5
67
330
61
100
AcDbEntity
  8
CSLAYER1
  6
CONTINUOUS
 62
     4
100
AcDbLine
 10
172.9914479999999
 20
67.57844699999999
 30
0.0
 11
170.9914479999999
 21
71.04254899999998
 31
0.0
  0
LINE
  5
68
330
61
100
AcDbEntity
  8
CSLAYER1
  6
CONTINUOUS
 62
     4
100
AcDbLine
 10
174.9914479999999
 20
71.04254899999998
 30
0.0
 11
172.9914479999999
 21
67.57844699999999
 31
0.0
  0
LINE
  5
69
330
61
100
AcDbEntity
  8
CSLAYER1
  6
CONTINUOUS
 62
     4
100
AcDbLine
 10
176.9914479999999
 20
67.57844699999999
 30
0.0
 11
174.9914479999999
 21
71.04254899999998
 31
0.0
  0
ENDBLK
  5
6A
330
61
100
AcDbEntity
  8
0
100
AcDbBlockEnd
  0
BLOCK
  5
6C
330
6B
100
AcDbEntity
  8
0
100
AcDbBlockBegin
  2
*D4
 70
     1
 10
0.0
 20
0.0
 30
0.0
  3
*D4
  1

  0
TEXT
  5
6D
330
6B
100
AcDbEntity
  8
CSLAYER1
 62
     4
100
AcDbText
 10
89.467812
 20
71.088577
 30
0.0
 40
3.0
  1
(7.5)
 50
90.0
 41
1.153846153846152
 51
15.0
  7
FX_FONT
 72
     5
 11
89.467812
 21
86.08857699999999
 31
0.0
100
AcDbText
  0
LINE
  5
6E
330
6B
100
AcDbEntity
  8
CSLAYER1
  6
CONTINUOUS
 62
     4
100
AcDbLine
 10
125.812462
 20
86.134599
 30
0.0
 11
89.467811
 21
86.134599
 31
0.0
  0
LINE
  5
6F
330
6B
100
AcDbEntity
  8
CSLAYER1
  6
CONTINUOUS
 62
     4
100
AcDbLine
 10
90.467811
 20
71.04254899999998
 30
0.0
 11
90.467811
 21
86.134599
 31
0.0
  0
LINE
  5
70
330
6B
100
AcDbEntity
  8
CSLAYER1
  6
CONTINUOUS
 62
     4
100
AcDbLine
 10
90.467811
 20
71.04254899999998
 30
0.0
 11
89.691354
 21
73.940326
 31
0.0
  0
LINE
  5
71
330
6B
100
AcDbEntity
  8
CSLAYER1
  6
CONTINUOUS
 62
     4
100
AcDbLine
 10
90.467811
 20
71.04254899999998
 30
0.0
 11
91.24426900000001
 21
73.940326
 31
0.0
  0
LINE
  5
72
330
6B
100
AcDbEntity
  8
CSLAYER1
  6
CONTINUOUS
 62
     4
100
AcDbLine
 10
90.467811
 20
86.134599
 30
0.0
 11
89.691354
 21
83.236822
 31
0.0
  0
LINE
  5
73
330
6B
100
AcDbEntity
  8
CSLAYER1
  6
CONTINUOUS
 62
     4
100
AcDbLine
 10
90.467811
 20
86.134599
 30
0.0
 11
91.24426900000001
 21
83.236822
 31
0.0
  0
ENDBLK
  5
74
330
6B
100
AcDbEntity
  8
0
100
AcDbBlockEnd
  0
BLOCK
  5
76
330
75
100
AcDbEntity
  8
0
100
AcDbBlockBegin
  2
FXDIM0002
 70
     0
 10
0.0
 20
0.0
 30
0.0
  3
FXDIM0002
  1

  0
LINE
  5
77
330
75
100
AcDbEntity
  8
CSLAYER1
  6
CONTINUOUS
 62
     4
100
AcDbLine
 10
152.73029
 20
136.082253
 30
0.0
 11
145.4468139999999
 21
108.899951
 31
0.0
  0
LINE
  5
78
330
75
100
AcDbEntity
  8
CSLAYER1
  6
CONTINUOUS
 62
     4
100
AcDbLine
 10
152.73029
 20
136.082253
 30
0.0
 11
152.73029
 21
133.082253
 31
0.0
  0
LINE
  5
79
330
75
100
AcDbEntity
  8
CSLAYER1
  6
CONTINUOUS
 62
     4
100
AcDbLine
 10
152.73029
 20
136.082253
 30
0.0
 11
151.2302899999999
 21
133.4841769999999
 31
0.0
  0
LINE
  5
7A
330
75
100
AcDbEntity
  8
CSLAYER1
  6
CONTINUOUS
 62
     4
100
AcDbLine
 10
145.4468139999999
 20
108.899951
 30
0.0
 11
131.446814
 21
108.899951
 31
0.0
  0
TEXT
  5
7B
330
75
100
AcDbEntity
  8
CSLAYER1
 62
     4
100
AcDbText
 10
132.446808
 20
109.899948
 30
0.0
 40
3.0
  1
%%c4.1
 41
1.142857142857142
 51
15.0
  7
FX_FONT
 72
     5
 11
144.446808
 21
109.899948
 31
0.0
100
AcDbText
  0
ENDBLK
  5
7C
330
75
100
AcDbEntity
  8
0
100
AcDbBlockEnd
  0
BLOCK
  5
7E
330
7D
100
AcDbEntity
  8
0
100
AcDbBlockBegin
  2
*D6
 70
     1
 10
0.0
 20
0.0
 30
0.0
  3
*D6
  1

  0
TEXT
  5
7F
330
7D
100
AcDbEntity
  8
CSLAYER1
 62
     4
100
AcDbText
 10
51.066739
 20
172.108977
 30
0.0
 40
3.0
  1
45%%d
 50
337.4999998658586
 41
1.285714319030611
 51
15.0
  7
FX_FONT
 72
     5
 11
59.381655
 21
168.664826
 31
0.0
100
AcDbText
  0
ARC
  5
80
330
7D
100
AcDbEntity
  8
CSLAYER1
  6
CONTINUOUS
 62
     4
100
AcDbCircle
 10
42.323781
 20
139.2425489999999
 30
0.0
 40
32.710413
100
AcDbArc
 50
45.0
 51
90.0
  0
LINE
  5
81
330
7D
100
AcDbEntity
  8
CSLAYER1
  6
CONTINUOUS
 62
     4
100
AcDbLine
 10
65.453536
 20
162.372304
 30
0.0
 11
62.85546
 21
163.872304
 31
0.0
  0
LINE
  5
82
330
7D
100
AcDbEntity
  8
CSLAYER1
  6
CONTINUOUS
 62
     4
100
AcDbLine
 10
65.453536
 20
162.372304
 30
0.0
 11
63.95353599999999
 21
164.97038
 31
0.0
  0
LINE
  5
83
330
7D
100
AcDbEntity
  8
CSLAYER1
  6
CONTINUOUS
 62
     4
100
AcDbLine
 10
42.323781
 20
171.952962
 30
0.0
 11
45.221558
 21
172.729419
 31
0.0
  0
LINE
  5
84
330
7D
100
AcDbEntity
  8
CSLAYER1
  6
CONTINUOUS
 62
     4
100
AcDbLine
 10
42.323781
 20
171.952962
 30
0.0
 11
45.221558
 21
171.1765049999999
 31
0.0
  0
LINE
  5
85
330
7D
100
AcDbEntity
  8
CSLAYER1
  6
CONTINUOUS
 62
     4
100
AcDbLine
 10
45.03088799999999
 20
141.949655
 30
0.0
 11
66.16064300000001
 21
163.0794099999999
 31
0.0
  0
LINE
  5
86
330
7D
100
AcDbEntity
  8
CSLAYER1
  6
CONTINUOUS
 62
     4
100
AcDbLine
 10
42.323781
 20
161.042549
 30
0.0
 11
42.323781
 21
172.952962
 31
0.0
  0
ENDBLK
  5
87
330
7D
100
AcDbEntity
  8
0
100
AcDbBlockEnd
  0
BLOCK
  5
89
330
88
100
AcDbEntity
  8
0
100
AcDbBlockBegin
  2
*D7
 70
     1
 10
0.0
 20
0.0
 30
0.0
  3
*D7
  1

  0
TEXT
  5
8A
330
88
100
AcDbEntity
  8
CSLAYER1
 62
     4
100
AcDbText
 10
20.53169099999998
 20
150.950378
 30
0.0
 40
3.0
  1
(0.4)
 41
1.153846153846153
 51
15.0
  7
FX_FONT
 72
     5
 11
35.53169099999997
 21
150.950378
 31
0.0
100
AcDbText
  0
LINE
  5
8B
330
88
100
AcDbEntity
  8
CSLAYER1
  6
CONTINUOUS
 62
     4
100
AcDbLine
 10
32.781959
 20
149.5843699999998
 30
0.0
 11
33.581959
 21
149.5843699999998
 31
0.0
  0
LINE
  5
8C
330
88
100
AcDbEntity
  8
CSLAYER1
  6
CONTINUOUS
 62
     4
100
AcDbLine
 10
41.61667399999998
 20
140.749655
 30
0.0
 11
32.074852
 21
150.291477
 31
0.0
  0
LINE
  5
8D
330
88
100
AcDbEntity
  8
CSLAYER1
  6
CONTINUOUS
 62
     4
100
AcDbLine
 10
42.41667399999999
 20
140.749655
 30
0.0
 11
32.874852
 21
150.291477
 31
0.0
  0
LINE
  5
8E
330
88
100
AcDbEntity
  8
CSLAYER1
  6
CONTINUOUS
 62
     4
100
AcDbLine
 10
26.781959
 20
149.5843699999998
 30
0.0
 11
32.781959
 21
149.5843699999998
 31
0.0
  0
LINE
  5
8F
330
88
100
AcDbEntity
  8
CSLAYER1
  6
CONTINUOUS
 62
     4
100
AcDbLine
 10
32.781959
 20
149.5843699999998
 30
0.0
 11
29.88418199999999
 21
150.3608269999999
 31
0.0
  0
LINE
  5
90
330
88
100
AcDbEntity
  8
CSLAYER1
  6
CONTINUOUS
 62
     4
100
AcDbLine
 10
32.781959
 20
149.5843699999998
 30
0.0
 11
29.88418199999999
 21
148.8079129999998
 31
0.0
  0
LINE
  5
91
330
88
100
AcDbEntity
  8
CSLAYER1
  6
CONTINUOUS
 62
     4
100
AcDbLine
 10
33.581959
 20
149.5843699999998
 30
0.0
 11
39.581959
 21
149.5843699999998
 31
0.0
  0
LINE
  5
92
330
88
100
AcDbEntity
  8
CSLAYER1
  6
CONTINUOUS
 62
     4
100
AcDbLine
 10
33.581959
 20
149.5843699999998
 30
0.0
 11
36.479737
 21
150.3608269999999
 31
0.0
  0
LINE
  5
93
330
88
100
AcDbEntity
  8
CSLAYER1
  6
CONTINUOUS
 62
     4
100
AcDbLine
 10
33.581959
 20
149.5843699999998
 30
0.0
 11
36.479737
 21
148.8079129999998
 31
0.0
  0
ENDBLK
  5
94
330
88
100
AcDbEntity
  8
0
100
AcDbBlockEnd
  0
BLOCK
  5
96
330
95
100
AcDbEntity
  8
0
100
AcDbBlockBegin
  2
*D8
 70
     1
 10
0.0
 20
0.0
 30
0.0
  3
*D8
  1

  0
TEXT
  5
97
330
95
100
AcDbEntity
  8
CSLAYER1
 62
     4
100
AcDbText
 10
15.934664
 20
129.7719919999997
 30
0.0
 40
3.0
  1
60%%d
 50
300.000002018276
 41
1.285714207269696
 51
15.0
  7
FX_FONT
 72
     5
 11
20.434664
 21
121.9777639999999
 31
0.0
100
AcDbText
  0
ARC
  5
98
330
95
100
AcDbEntity
  8
CSLAYER1
  6
CONTINUOUS
 62
     4
100
AcDbCircle
 10
42.723781
 20
140.042549
 30
0.0
 40
29.335333
100
AcDbArc
 50
180.0
 51
239.9999999999999
  0
LINE
  5
99
330
95
100
AcDbEntity
  8
CSLAYER1
  6
CONTINUOUS
 62
     4
100
AcDbLine
 10
13.388448
 20
140.042549
 30
0.0
 11
12.611991
 21
137.1447709999999
 31
0.0
  0
LINE
  5
9A
330
95
100
AcDbEntity
  8
CSLAYER1
  6
CONTINUOUS
 62
     4
100
AcDbLine
 10
13.388448
 20
140.042549
 30
0.0
 11
14.164905
 21
137.1447709999999
 31
0.0
  0
LINE
  5
9B
330
95
100
AcDbEntity
  8
CSLAYER1
  6
CONTINUOUS
 62
     4
100
AcDbLine
 10
28.056115
 20
114.637405
 30
0.0
 11
25.15833699999999
 21
115.413863
 31
0.0
  0
LINE
  5
9C
330
95
100
AcDbEntity
  8
CSLAYER1
  6
CONTINUOUS
 62
     4
100
AcDbLine
 10
28.056115
 20
114.637405
 30
0.0
 11
25.934794
 21
116.7587259999999
 31
0.0
  0
LINE
  5
9D
330
95
100
AcDbEntity
  8
CSLAYER1
  6
CONTINUOUS
 62
     4
100
AcDbLine
 10
36.250352
 20
140.042549
 30
0.0
 11
12.388448
 21
140.042549
 31
0.0
  0
LINE
  5
9E
330
95
100
AcDbEntity
  8
CSLAYER1
  6
CONTINUOUS
 62
     4
100
AcDbLine
 10
41.823781
 20
138.4837029999999
 30
0.0
 11
27.556115
 21
113.7713799999999
 31
0.0
  0
ENDBLK
  5
9F
330
95
100
AcDbEntity
  8
0
100
AcDbBlockEnd
  0
BLOCK
  5
A1
330
A0
100
AcDbEntity
  8
0
100
AcDbBlockBegin
  2
*D9
 70
     1
 10
0.0
 20
0.0
 30
0.0
  3
*D9
  1

  0
TEXT
  5
A2
330
A0
100
AcDbEntity
  8
CSLAYER1
 62
     4
100
AcDbText
 10
41.96078499999997
 20
111.3622629999997
 30
0.0
 40
3.0
  1
75%%d
 50
7.500001498518474
 41
1.285714325823118
 51
15.0
  7
FX_FONT
 72
     5
 11
50.883789
 21
112.536999
 31
0.0
100
AcDbText
  0
ARC
  5
A3
330
A0
100
AcDbEntity
  8
CSLAYER1
  6
CONTINUOUS
 62
     4
100
AcDbCircle
 10
42.723781
 20
140.042549
 30
0.0
 40
29.335333
100
AcDbArc
 50
239.9999999999999
 51
315.0
  0
LINE
  5
A4
330
A0
100
AcDbEntity
  8
CSLAYER1
  6
CONTINUOUS
 62
     4
100
AcDbLine
 10
28.056115
 20
114.637405
 30
0.0
 11
30.953892
 21
113.8609479999999
 31
0.0
  0
LINE
  5
A5
330
A0
100
AcDbEntity
  8
CSLAYER1
  6
CONTINUOUS
 62
     4
100
AcDbLine
 10
28.056115
 20
114.637405
 30
0.0
 11
30.17743499999999
 21
112.516085
 31
0.0
  0
LINE
  5
A6
330
A0
100
AcDbEntity
  8
CSLAYER1
  6
CONTINUOUS
 62
     4
100
AcDbLine
 10
63.466993
 20
119.299336
 30
0.0
 11
61.966993
 21
116.70126
 31
0.0
  0
LINE
  5
A7
330
A0
100
AcDbEntity
  8
CSLAYER1
  6
CONTINUOUS
 62
     4
100
AcDbLine
 10
63.466993
 20
119.299336
 30
0.0
 11
60.868917
 21
117.799336
 31
0.0
  0
LINE
  5
A8
330
A0
100
AcDbEntity
  8
CSLAYER1
  6
CONTINUOUS
 62
     4
100
AcDbLine
 10
45.76514399999999
 20
137.001186
 30
0.0
 11
64.1741
 21
118.592229
 31
0.0
  0
ENDBLK
  5
A9
330
A0
100
AcDbEntity
  8
0
100
AcDbBlockEnd
  0
BLOCK
  5
AB
330
AA
100
AcDbEntity
  8
0
100
AcDbBlockBegin
  2
*D10
 70
     1
 10
0.0
 20
0.0
 30
0.0
  3
*D10
  1

  0
TEXT
  5
AC
330
AA
100
AcDbEntity
  8
CSLAYER1
 62
     4
100
AcDbText
 10
84.648277
 20
132.5425419999999
 30
0.0
 40
3.0
  1
20~21
 50
90.0
 41
1.111111111111117
 51
15.0
  7
FX_FONT
 72
     5
 11
84.648277
 21
147.542542
 31
0.0
100
AcDbText
  0
LINE
  5
AD
330
AA
100
AcDbEntity
  8
CSLAYER1
  6
CONTINUOUS
 62
     4
100
AcDbLine
 10
85.64827800000001
 20
120.0425489999999
 30
0.0
 11
85.64827800000001
 21
160.042549
 31
0.0
  0
LINE
  5
AE
330
AA
100
AcDbEntity
  8
CSLAYER1
  6
CONTINUOUS
 62
     4
100
AcDbLine
 10
85.64827800000001
 20
120.0425489999999
 30
0.0
 11
84.871821
 21
122.9403259999999
 31
0.0
  0
LINE
  5
AF
330
AA
100
AcDbEntity
  8
CSLAYER1
  6
CONTINUOUS
 62
     4
100
AcDbLine
 10
85.64827800000001
 20
120.0425489999999
 30
0.0
 11
86.42473499999999
 21
122.9403259999999
 31
0.0
  0
LINE
  5
B0
330
AA
100
AcDbEntity
  8
CSLAYER1
  6
CONTINUOUS
 62
     4
100
AcDbLine
 10
85.64827800000001
 20
160.042549
 30
0.0
 11
84.871821
 21
157.1447709999999
 31
0.0
  0
LINE
  5
B1
330
AA
100
AcDbEntity
  8
CSLAYER1
  6
CONTINUOUS
 62
     4
100
AcDbLine
 10
85.64827800000001
 20
160.042549
 30
0.0
 11
86.42473499999999
 21
157.1447709999999
 31
0.0
  0
LINE
  5
B2
330
AA
100
AcDbEntity
  8
CSLAYER1
  6
CONTINUOUS
 62
     4
100
AcDbLine
 10
138.0215379999999
 20
120.0425489999999
 30
0.0
 11
84.648278
 21
120.0425489999999
 31
0.0
  0
LINE
  5
B3
330
AA
100
AcDbEntity
  8
CSLAYER1
  6
CONTINUOUS
 62
     4
100
AcDbLine
 10
138.0215379999999
 20
160.042549
 30
0.0
 11
84.648278
 21
160.042549
 31
0.0
  0
ENDBLK
  5
B4
330
AA
100
AcDbEntity
  8
0
100
AcDbBlockEnd
  0
BLOCK
  5
B6
330
B5
100
AcDbEntity
  8
0
100
AcDbBlockBegin
  2
*D11
 70
     1
 10
0.0
 20
0.0
 30
0.0
  3
*D11
  1

  0
TEXT
  5
B7
330
B5
100
AcDbEntity
  8
CSLAYER1
 62
     4
100
AcDbText
 10
89.49150799999998
 20
135.41481
 30
0.0
 40
3.0
  1
(1)
 50
90.0
 41
1.285714285714285
 51
15.0
  7
FX_FONT
 72
     5
 11
89.49150799999998
 21
144.41481
 31
0.0
100
AcDbText
  0
LINE
  5
B8
330
B5
100
AcDbEntity
  8
CSLAYER1
  6
CONTINUOUS
 62
     4
100
AcDbLine
 10
91.64827800000001
 20
139.042549
 30
0.0
 11
91.64827800000001
 21
141.042549
 31
0.0
  0
LINE
  5
B9
330
B5
100
AcDbEntity
  8
CSLAYER1
  6
CONTINUOUS
 62
     4
100
AcDbLine
 10
98.791448
 20
139.042549
 30
0.0
 11
90.64827800000001
 21
139.042549
 31
0.0
  0
LINE
  5
BA
330
B5
100
AcDbEntity
  8
CSLAYER1
  6
CONTINUOUS
 62
     4
100
AcDbLine
 10
98.791448
 20
141.042549
 30
0.0
 11
90.64827800000001
 21
141.042549
 31
0.0
  0
LINE
  5
BB
330
B5
100
AcDbEntity
  8
CSLAYER1
  6
CONTINUOUS
 62
     4
100
AcDbLine
 10
91.64827800000001
 20
133.042549
 30
0.0
 11
91.64827800000001
 21
139.042549
 31
0.0
  0
LINE
  5
BC
330
B5
100
AcDbEntity
  8
CSLAYER1
  6
CONTINUOUS
 62
     4
100
AcDbLine
 10
91.64827800000001
 20
139.042549
 30
0.0
 11
90.87182099999999
 21
136.1447709999999
 31
0.0
  0
LINE
  5
BD
330
B5
100
AcDbEntity
  8
CSLAYER1
  6
CONTINUOUS
 62
     4
100
AcDbLine
 10
91.64827800000001
 20
139.042549
 30
0.0
 11
92.424735
 21
136.1447709999999
 31
0.0
  0
LINE
  5
BE
330
B5
100
AcDbEntity
  8
CSLAYER1
  6
CONTINUOUS
 62
     4
100
AcDbLine
 10
91.64827800000001
 20
141.042549
 30
0.0
 11
91.64827800000001
 21
147.042549
 31
0.0
  0
LINE
  5
BF
330
B5
100
AcDbEntity
  8
CSLAYER1
  6
CONTINUOUS
 62
     4
100
AcDbLine
 10
91.64827800000001
 20
141.042549
 30
0.0
 11
90.87182099999999
 21
143.9403259999999
 31
0.0
  0
LINE
  5
C0
330
B5
100
AcDbEntity
  8
CSLAYER1
  6
CONTINUOUS
 62
     4
100
AcDbLine
 10
91.64827800000001
 20
141.042549
 30
0.0
 11
92.424735
 21
143.9403259999999
 31
0.0
  0
ENDBLK
  5
C1
330
B5
100
AcDbEntity
  8
0
100
AcDbBlockEnd
  0
BLOCK
  5
C3
330
C2
100
AcDbEntity
  8
0
100
AcDbBlockBegin
  2
*D12
 70
     1
 10
0.0
 20
0.0
 30
0.0
  3
*D12
  1

  0
TEXT
  5
C4
330
C2
100
AcDbEntity
  8
CSLAYER1
 62
     4
100
AcDbText
 10
123.7914509999999
 20
177.364227
 30
0.0
 40
3.0
  1
27
 41
1.200000000000017
 51
15.0
  7
FX_FONT
 72
     5
 11
129.791451
 21
177.364227
 31
0.0
100
AcDbText
  0
LINE
  5
C5
330
C2
100
AcDbEntity
  8
CSLAYER1
  6
CONTINUOUS
 62
     4
100
AcDbLine
 10
99.791448
 20
176.364232
 30
0.0
 11
153.7914479999999
 21
176.364232
 31
0.0
  0
LINE
  5
C6
330
C2
100
AcDbEntity
  8
CSLAYER1
  6
CONTINUOUS
 62
     4
100
AcDbLine
 10
99.791448
 20
176.364232
 30
0.0
 11
102.6892249999999
 21
177.1406889999999
 31
0.0
  0
LINE
  5
C7
330
C2
100
AcDbEntity
  8
CSLAYER1
  6
CONTINUOUS
 62
     4
100
AcDbLine
 10
99.791448
 20
176.364232
 30
0.0
 11
102.6892249999999
 21
175.5877749999999
 31
0.0
  0
LINE
  5
C8
330
C2
100
AcDbEntity
  8
CSLAYER1
  6
CONTINUOUS
 62
     4
100
AcDbLine
 10
153.7914479999999
 20
176.364232
 30
0.0
 11
150.8936699999999
 21
177.1406889999999
 31
0.0
  0
LINE
  5
C9
330
C2
100
AcDbEntity
  8
CSLAYER1
  6
CONTINUOUS
 62
     4
100
AcDbLine
 10
153.7914479999999
 20
176.364232
 30
0.0
 11
150.8936699999999
 21
175.5877749999999
 31
0.0
  0
LINE
  5
CA
330
C2
100
AcDbEntity
  8
CSLAYER1
  6
CONTINUOUS
 62
     4
100
AcDbLine
 10
99.791448
 20
142.042549
 30
0.0
 11
99.791448
 21
177.364232
 31
0.0
  0
LINE
  5
CB
330
C2
100
AcDbEntity
  8
CSLAYER1
  6
CONTINUOUS
 62
     4
100
AcDbLine
 10
153.7914479999999
 20
168.6425489999999
 30
0.0
 11
153.7914479999999
 21
177.364232
 31
0.0
  0
ENDBLK
  5
CC
330
C2
100
AcDbEntity
  8
0
100
AcDbBlockEnd
  0
BLOCK
  5
CE
330
CD
100
AcDbEntity
  8
0
100
AcDbBlockBegin
  2
*D13
 70
     1
 10
0.0
 20
0.0
 30
0.0
  3
*D13
  1

  0
TEXT
  5
CF
330
CD
100
AcDbEntity
  8
CSLAYER1
 62
     4
100
AcDbText
 10
116.381903
 20
127.361393
 30
0.0
 40
3.0
  1
R25
 50
63.24289215515655
 41
1.125000014698287
 51
15.0
  7
FX_FONT
 72
     5
 11
120.433786
 21
135.397701
 31
0.0
100
AcDbText
  0
LINE
  5
D0
330
CD
100
AcDbEntity
  8
CSLAYER1
  6
CONTINUOUS
 62
     4
100
AcDbLine
 10
116.511078
 20
125.3963939999999
 30
0.0
 11
126.0278699999999
 21
144.271537
 31
0.0
  0
LINE
  5
D1
330
CD
100
AcDbEntity
  8
CSLAYER1
  6
CONTINUOUS
 62
     4
100
AcDbLine
 10
116.511078
 20
125.3963939999999
 30
0.0
 11
117.122367
 21
128.333454
 31
0.0
  0
LINE
  5
D2
330
CD
100
AcDbEntity
  8
CSLAYER1
  6
CONTINUOUS
 62
     4
100
AcDbLine
 10
116.511078
 20
125.3963939999999
 30
0.0
 11
118.5090009999999
 21
127.634318
 31
0.0
  0
ENDBLK
  5
D3
330
CD
100
AcDbEntity
  8
0
100
AcDbBlockEnd
  0
BLOCK
  5
D5
330
D4
100
AcDbEntity
  8
0
100
AcDbBlockBegin
  2
*D14
 70
     1
 10
0.0
 20
0.0
 30
0.0
  3
*D14
  1

  0
TEXT
  5
D6
330
D4
100
AcDbEntity
  8
CSLAYER1
 62
     4
100
AcDbText
 10
102.2914509999999
 20
60.486042
 30
0.0
 40
3.0
  1
切刃部有効13
 41
0.9130434782608729
 51
15.0
  7
FX_FONT
 72
     5
 11
123.291451
 21
60.486042
 31
0.0
100
AcDbText
  0
LINE
  5
D7
330
D4
100
AcDbEntity
  8
CSLAYER1
  6
CONTINUOUS
 62
     4
100
AcDbLine
 10
99.791448
 20
59.48604200000001
 30
0.0
 11
125.7914479999999
 21
59.48604200000001
 31
0.0
  0
LINE
  5
D8
330
D4
100
AcDbEntity
  8
CSLAYER1
  6
CONTINUOUS
 62
     4
100
AcDbLine
 10
99.791448
 20
59.48604200000001
 30
0.0
 11
102.6892249999999
 21
60.2625
 31
0.0
  0
LINE
  5
D9
330
D4
100
AcDbEntity
  8
CSLAYER1
  6
CONTINUOUS
 62
     4
100
AcDbLine
 10
99.791448
 20
59.48604200000001
 30
0.0
 11
102.6892249999999
 21
58.709585
 31
0.0
  0
LINE
  5
DA
330
D4
100
AcDbEntity
  8
CSLAYER1
  6
CONTINUOUS
 62
     4
100
AcDbLine
 10
125.7914479999999
 20
59.48604200000001
 30
0.0
 11
122.8936699999999
 21
60.2625
 31
0.0
  0
LINE
  5
DB
330
D4
100
AcDbEntity
  8
CSLAYER1
  6
CONTINUOUS
 62
     4
100
AcDbLine
 10
125.7914479999999
 20
59.48604200000001
 30
0.0
 11
122.8936699999999
 21
58.709585
 31
0.0
  0
LINE
  5
DC
330
D4
100
AcDbEntity
  8
CSLAYER1
  6
CONTINUOUS
 62
     4
100
AcDbLine
 10
99.791448
 20
70.04254899999999
 30
0.0
 11
99.791448
 21
58.486042
 31
0.0
  0
LINE
  5
DD
330
D4
100
AcDbEntity
  8
CSLAYER1
  6
CONTINUOUS
 62
     4
100
AcDbLine
 10
125.7914479999999
 20
70.04254899999999
 30
0.0
 11
125.7914479999999
 21
58.486042
 31
0.0
  0
ENDBLK
  5
DE
330
D4
100
AcDbEntity
  8
0
100
AcDbBlockEnd
  0
BLOCK
  5
E0
330
DF
100
AcDbEntity
  8
0
100
AcDbBlockBegin
  2
*D15
 70
     1
 10
0.0
 20
0.0
 30
0.0
  3
*D15
  1

  0
TEXT
  5
E1
330
DF
100
AcDbEntity
  8
CSLAYER1
 62
     4
100
AcDbText
 10
70.01448100000001
 20
29.072596
 30
0.0
 40
3.0
  1
5
 50
90.0
 41
1.500000000000001
 51
15.0
  7
FX_FONT
 72
     5
 11
70.01448100000001
 21
32.072596
 31
0.0
100
AcDbText
  0
LINE
  5
E2
330
DF
100
AcDbEntity
  8
CSLAYER1
  6
CONTINUOUS
 62
     4
100
AcDbLine
 10
71.014483
 20
25.572595
 30
0.0
 11
71.014483
 21
35.572595
 31
0.0
  0
LINE
  5
E3
330
DF
100
AcDbEntity
  8
CSLAYER1
  6
CONTINUOUS
 62
     4
100
AcDbLine
 10
71.014483
 20
25.572595
 30
0.0
 11
70.238026
 21
28.47037199999999
 31
0.0
  0
LINE
  5
E4
330
DF
100
AcDbEntity
  8
CSLAYER1
  6
CONTINUOUS
 62
     4
100
AcDbLine
 10
71.014483
 20
25.572595
 30
0.0
 11
71.79094
 21
28.47037199999999
 31
0.0
  0
LINE
  5
E5
330
DF
100
AcDbEntity
  8
CSLAYER1
  6
CONTINUOUS
 62
     4
100
AcDbLine
 10
71.014483
 20
35.572595
 30
0.0
 11
70.238026
 21
32.67481699999999
 31
0.0
  0
LINE
  5
E6
330
DF
100
AcDbEntity
  8
CSLAYER1
  6
CONTINUOUS
 62
     4
100
AcDbLine
 10
71.014483
 20
35.572595
 30
0.0
 11
71.79094
 21
32.67481699999999
 31
0.0
  0
LINE
  5
E7
330
DF
100
AcDbEntity
  8
CSLAYER1
  6
CONTINUOUS
 62
     4
100
AcDbLine
 10
79.68132199999998
 20
25.572595
 30
0.0
 11
70.01448299999998
 21
25.572595
 31
0.0
  0
LINE
  5
E8
330
DF
100
AcDbEntity
  8
CSLAYER1
  6
CONTINUOUS
 62
     4
100
AcDbLine
 10
79.68132199999998
 20
35.572595
 30
0.0
 11
70.01448299999998
 21
35.572595
 31
0.0
  0
ENDBLK
  5
E9
330
DF
100
AcDbEntity
  8
0
100
AcDbBlockEnd
  0
BLOCK
  5
197
330
18A
100
AcDbEntity
  8
0
100
AcDbBlockBegin
  2
*D16
 70
     1
 10
0.0
 20
0.0
 30
0.0
  3
*D16
  1

  0
LINE
  5
18B
330
18A
100
AcDbEntity
  8
CSLAYER1
 62
     0
100
AcDbLine
 10
44.36797517382415
 20
141.2867431738241
 30
0.0
 11
65.58081498942428
 21
162.4995829894244
 31
0.0
  0
LINE
  5
18C
330
18A
100
AcDbEntity
  8
CSLAYER1
 62
     0
100
AcDbLine
 10
42.323781
 20
160.1050489999998
 30
0.0
 11
42.323781
 21
172.1329618884159
 31
0.0
  0
ARC
  5
18D
330
18A
100
AcDbEntity
  8
CSLAYER1
 62
     0
100
AcDbCircle
 10
42.32378099999997
 20
139.2425489999999
 30
0.0
 40
32.71041288841601
100
AcDbArc
 50
45.31528961006918
 51
66.7814550710436
  0
ARC
  5
18E
330
18A
100
AcDbEntity
  8
CSLAYER1
 62
     0
100
AcDbCircle
 10
42.32378099999997
 20
139.2425489999999
 30
0.0
 40
32.71041288841601
100
AcDbArc
 50
68.21483134418295
 51
89.68471038993106
  0
SOLID
  5
18F
330
18A
100
AcDbEntity
  8
CSLAYER1
 62
     0
100
AcDbTrace
 10
65.34706158846613
 20
162.5205037989049
 30
0.0
 11
65.30475207494067
 21
162.4779608198694
 31
0.0
 12
65.45353576881069
 22
162.3723037688108
 32
0.0
 13
65.45353576881069
 23
162.3723037688108
 33
0.0
  0
SOLID
  5
190
330
18A
100
AcDbEntity
  8
CSLAYER1
 62
     0
100
AcDbTrace
 10
42.50369777614912
 20
171.9224667468341
 30
0.0
 11
42.50386286119463
 21
171.9824665197245
 31
0.0
 12
42.32378099999999
 22
171.9529618884159
 32
0.0
 13
42.32378099999999
 23
171.9529618884159
 33
0.0
  0
MTEXT
  5
191
330
18A
100
AcDbEntity
  8
CSLAYER1
 62
     0
100
AcDbMText
 10
54.84151407821823
 20
169.4630299676007
 30
0.0
 40
0.18
 41
0.0
 71
     5
 72
     1
  1
\A1;45°
1001
ACAD
1000
MTEXTBEGIN
1070
    73
1070
     1
1070
    44
1040
1.0
1070
    74
1070
     0
1000
MTEXTEND
1000
MTEXTBEGIN
1070
    73
1070
     1
1070
    44
1040
1.0
1070
    74
1070
     0
1000
MTEXTEND
  0
POINT
  5
192
330
18A
100
AcDbEntity
  8
DEFPOINTS
 62
     0
100
AcDbPoint
 10
58.6789874442079
 20
167.570597529646
 30
0.0
  0
POINT
  5
193
330
18A
100
AcDbEntity
  8
DEFPOINTS
 62
     0
100
AcDbPoint
 10
43.12378099999999
 20
140.042549
 30
0.0
  0
POINT
  5
194
330
18A
100
AcDbEntity
  8
DEFPOINTS
 62
     0
100
AcDbPoint
 10
42.323781
 20
160.0425489999999
 30
0.0
  0
POINT
  5
195
330
18A
100
AcDbEntity
  8
DEFPOINTS
 62
     0
100
AcDbPoint
 10
42.32378099999999
 20
140.0425489999999
 30
0.0
  0
POINT
  5
196
330
18A
100
AcDbEntity
  8
DEFPOINTS
 62
     0
100
AcDbPoint
 10
44.323781
 20
141.2425489999999
 30
0.0
  0
ENDBLK
  5
198
330
18A
100
AcDbEntity
  8
0
100
AcDbBlockEnd
  0
BLOCK
  5
1A6
330
199
100
AcDbEntity
  8
0
100
AcDbBlockBegin
  2
*D17
 70
     1
 10
0.0
 20
0.0
 30
0.0
  3
*D17
  1

  0
LINE
  5
19A
330
199
100
AcDbEntity
  8
CSLAYER1
 62
     0
100
AcDbLine
 10
37.18785199999999
 20
140.042549
 30
0.0
 11
13.20844827522358
 21
140.042549
 31
0.0
  0
LINE
  5
19B
330
199
100
AcDbEntity
  8
CSLAYER1
 62
     0
100
AcDbLine
 10
42.29253102290136
 20
139.2956013990412
 30
0.0
 11
27.96612545267473
 21
114.4815148151169
 31
0.0
  0
ARC
  5
19C
330
199
100
AcDbEntity
  8
CSLAYER1
 62
     0
100
AcDbCircle
 10
42.723781
 20
140.042549
 30
0.0
 40
29.33533272477642
100
AcDbArc
 50
180.3515643264729
 51
209.5948847447361
  0
ARC
  5
19D
330
199
100
AcDbEntity
  8
CSLAYER1
 62
     0
100
AcDbCircle
 10
42.723781
 20
140.042549
 30
0.0
 40
29.33533272477642
100
AcDbArc
 50
210.406800190974
 51
239.6484599157988
  0
SOLID
  5
19E
330
199
100
AcDbEntity
  8
CSLAYER1
 62
     0
100
AcDbTrace
 10
13.35900065149709
 20
139.862457807942
 30
0.0
 11
13.41900036912273
 21
139.862641886304
 31
0.0
 12
13.38844827522358
 22
140.042549
 32
0.0
 13
13.38844827522358
 23
140.042549
 33
0.0
  0
SOLID
  5
19F
330
199
100
AcDbEntity
  8
CSLAYER1
 62
     0
100
AcDbTrace
 10
27.91559725363125
 20
114.7538118127227
 30
0.0
 11
27.88543800022682
 21
114.7019425594594
 31
0.0
 12
28.0561253867188
 22
114.6373994258778
 32
0.0
 13
28.0561253867188
 23
114.6373994258778
 33
0.0
  0
MTEXT
  5
1A0
330
199
100
AcDbEntity
  8
CSLAYER1
 62
     0
100
AcDbMText
 10
17.31864073487474
 20
125.3748772630592
 30
0.0
 40
0.18
 41
0.0
 71
     5
 72
     1
  1
\A1;60°
1001
ACAD
1000
MTEXTBEGIN
1070
    73
1070
     1
1070
    44
1040
1.0
1070
    74
1070
     0
1000
MTEXTEND
1000
MTEXTBEGIN
1070
    73
1070
     1
1070
    44
1040
1.0
1070
    74
1070
     0
1000
MTEXTEND
  0
POINT
  5
1A1
330
199
100
AcDbEntity
  8
DEFPOINTS
 62
     0
100
AcDbPoint
 10
15.15758672527962
 20
130.0092704091447
 30
0.0
  0
POINT
  5
1A2
330
199
100
AcDbEntity
  8
DEFPOINTS
 62
     0
100
AcDbPoint
 10
42.323781
 20
140.042549
 30
0.0
  0
POINT
  5
1A3
330
199
100
AcDbEntity
  8
DEFPOINTS
 62
     0
100
AcDbPoint
 10
42.32378099999999
 20
139.349728
 30
0.0
  0
POINT
  5
1A4
330
199
100
AcDbEntity
  8
DEFPOINTS
 62
     0
100
AcDbPoint
 10
42.723781
 20
140.042549
 30
0.0
  0
POINT
  5
1A5
330
199
100
AcDbEntity
  8
DEFPOINTS
 62
     0
100
AcDbPoint
 10
37.25035199999999
 20
140.042549
 30
0.0
  0
ENDBLK
  5
1A7
330
199
100
AcDbEntity
  8
0
100
AcDbBlockEnd
  0
BLOCK
  5
1B5
330
1A8
100
AcDbEntity
  8
0
100
AcDbBlockBegin
  2
*D18
 70
     1
 10
0.0
 20
0.0
 30
0.0
  3
*D18
  1

  0
LINE
  5
1A9
330
1A8
100
AcDbEntity
  8
CSLAYER1
 62
     0
100
AcDbLine
 10
42.29253102290136
 20
139.2956013990412
 30
0.0
 11
27.96612541464257
 21
114.4815147492435
 31
0.0
  0
LINE
  5
1AA
330
1A8
100
AcDbEntity
  8
CSLAYER1
 62
     0
100
AcDbLine
 10
45.10223116435772
 20
137.6640978167091
 30
0.0
 11
63.59426850197188
 21
119.1720525570687
 31
0.0
  0
ARC
  5
1AB
330
1A8
100
AcDbEntity
  8
CSLAYER1
 62
     0
100
AcDbCircle
 10
42.723781
 20
140.042549
 30
0.0
 40
29.33533280084045
100
AcDbArc
 50
240.3515885678327
 51
276.7559665226034
  0
ARC
  5
1AC
330
1A8
100
AcDbEntity
  8
CSLAYER1
 62
     0
100
AcDbCircle
 10
42.723781
 20
140.042549
 30
0.0
 40
29.33533280084045
100
AcDbArc
 50
278.2453197511265
 51
314.6484234016268
  0
SOLID
  5
1AD
330
1A8
100
AcDbEntity
  8
CSLAYER1
 62
     0
100
AcDbTrace
 10
28.19736513303171
 20
114.5218514335057
 30
0.0
 11
28.22720555328292
 21
114.573904764996
 31
0.0
 12
28.05612534868664
 22
114.6373993600045
 32
0.0
 13
28.05612534868664
 23
114.6373993600045
 33
0.0
  0
SOLID
  5
1AE
330
1A8
100
AcDbEntity
  8
CSLAYER1
 62
     0
100
AcDbTrace
 10
63.3181721531471
 20
119.1937218895187
 30
0.0
 11
63.36046818817608
 21
119.1511655101987
 31
0.0
 12
63.4669893086216
 22
119.2993318049456
 32
0.0
 13
63.4669893086216
 23
119.2993318049456
 33
0.0
  0
MTEXT
  5
1AF
330
1A8
100
AcDbEntity
  8
CSLAYER1
 62
     0
100
AcDbMText
 10
46.55281332595786
 20
110.9581844378707
 30
0.0
 40
0.18
 41
0.0
 71
     5
 72
     1
  1
\A1;75°
1001
ACAD
1000
MTEXTBEGIN
1070
    73
1070
     1
1070
    44
1040
1.0
1070
    74
1070
     0
1000
MTEXTEND
1000
MTEXTBEGIN
1070
    73
1070
     1
1070
    44
1040
1.0
1070
    74
1070
     0
1000
MTEXTEND
  0
POINT
  5
1B0
330
1A8
100
AcDbEntity
  8
DEFPOINTS
 62
     0
100
AcDbPoint
 10
40.16704443758889
 20
110.818845458414
 30
0.0
  0
POINT
  5
1B1
330
1A8
100
AcDbEntity
  8
DEFPOINTS
 62
     0
100
AcDbPoint
 10
42.723781
 20
140.042549
 30
0.0
  0
POINT
  5
1B2
330
1A8
100
AcDbEntity
  8
DEFPOINTS
 62
     0
100
AcDbPoint
 10
45.058037
 20
137.7082919999999
 30
0.0
  0
POINT
  5
1B3
330
1A8
100
AcDbEntity
  8
DEFPOINTS
 62
     0
100
AcDbPoint
 10
42.723781
 20
140.042549
 30
0.0
  0
POINT
  5
1B4
330
1A8
100
AcDbEntity
  8
DEFPOINTS
 62
     0
100
AcDbPoint
 10
42.32378099999997
 20
139.349728
 30
0.0
  0
ENDBLK
  5
1B6
330
1A8
100
AcDbEntity
  8
0
100
AcDbBlockEnd
  0
ENDSEC
  0
SECTION
  2
ENTITIES
  0
POINT
  5
EA
330
1E
100
AcDbEntity
  8
CSLAYER1
 62
     3
100
AcDbPoint
 10
135.4999999999999
 20
26.75
 30
0.0
  0
POINT
  5
EB
330
1E
100
AcDbEntity
  8
CSLAYER1
 62
     3
100
AcDbPoint
 10
125.2499999999999
 20
26.75
 30
0.0
  0
POINT
  5
EC
330
1E
100
AcDbEntity
  8
CSLAYER1
 62
     3
100
AcDbPoint
 10
125.2499999999999
 20
21.75
 30
0.0
  0
POINT
  5
ED
330
1E
100
AcDbEntity
  8
CSLAYER1
 62
     3
100
AcDbPoint
 10
135.4999999999999
 20
21.75
 30
0.0
  0
TEXT
  5
EE
330
1E
100
AcDbEntity
  8
CSLAYER1
 62
     3
100
AcDbText
 10
119.0499999999999
 20
25.5
 30
0.0
 40
2.5
  1
刃開キハ
 41
1.110447761194031
  7
FX_FONT
 72
     5
 11
131.45
 21
25.5
 31
0.0
100
AcDbText
  0
TEXT
  5
EF
330
1E
100
AcDbEntity
  8
CSLAYER1
 62
     3
100
AcDbText
 10
119.0
 20
20.5
 30
0.0
 40
2.5
  1
切刃部有効
 41
0.872093023255814
  7
FX_FONT
 72
     5
 11
131.4999999999999
 21
20.5
 31
0.0
100
AcDbText
  0
TEXT
  5
F0
330
1E
100
AcDbEntity
  8
CSLAYER1
 62
     3
100
AcDbText
 10
134.25
 20
25.5
 30
0.0
 40
2.5
  1
5
 41
1.499999999999982
  7
FX_FONT
 72
     5
 11
136.7499999999999
 21
25.5
 31
0.0
100
AcDbText
  0
TEXT
  5
F1
330
1E
100
AcDbEntity
  8
CSLAYER1
 62
     3
100
AcDbText
 10
133.0
 20
20.5
 30
0.0
 40
2.5
  1
13
 41
1.199999999999999
  7
FX_FONT
 72
     5
 11
138.0
 21
20.5
 31
0.0
100
AcDbText
  0
POINT
  5
F4
330
1E
100
AcDbEntity
  8
CSLAYER1
 62
     3
100
AcDbPoint
 10
2.5
 20
0.5
 30
0.0
  0
POINT
  5
F5
330
1E
100
AcDbEntity
  8
CSLAYER1
 62
     3
100
AcDbPoint
 10
126.5
 20
9.5
 30
0.0
  0
INSERT
  5
F6
330
1E
100
AcDbEntity
  8
CSLAYER1
100
AcDbBlockReference
  2
FXDIM0000
 10
0.0
 20
0.0
 30
0.0
 41
0.5
 42
0.5
 43
0.5
  0
INSERT
  5
F7
330
1E
100
AcDbEntity
  8
CSLAYER1
100
AcDbBlockReference
  2
FXDIM0001
 10
0.0
 20
0.0
 30
0.0
 41
0.5
 42
0.5
 43
0.5
  0
TEXT
  5
F8
330
1E
100
AcDbEntity
  8
CSLAYER1
 62
     3
100
AcDbText
 10
123.0
 20
8.625
 30
0.0
 40
1.75
  1
N7BJ
 41
1.09090909090909
  7
FX_FONT
 72
     5
 11
130.0
 21
8.625
 31
0.0
100
AcDbText
  0
LINE
  5
F9
330
1E
100
AcDbEntity
  8
CSLAYER1
  6
CONTINUOUS
 62
     3
100
AcDbLine
 10
119.0
 20
20.0
 30
0.0
 11
139.5
 21
20.0
 31
0.0
  0
LINE
  5
FA
330
1E
100
AcDbEntity
  8
CSLAYER1
  6
CONTINUOUS
 62
     3
100
AcDbLine
 10
139.5
 20
25.0
 30
0.0
 11
119.0
 21
25.0
 31
0.0
  0
LINE
  5
FB
330
1E
100
AcDbEntity
  8
CSLAYER1
  6
CONTINUOUS
 62
     3
100
AcDbLine
 10
127.3970014999999
 20
36.4267145
 30
0.0
 11
93.895724
 21
35.52127449999999
 31
0.0
  0
LINE
  5
FC
330
1E
100
AcDbEntity
  8
CSLAYER1
  6
CONTINUOUS
 62
     3
100
AcDbLine
 10
93.895724
 20
35.52127449999999
 30
0.0
 11
49.895724
 21
35.52127449999999
 31
0.0
  0
LINE
  5
FD
330
1E
100
AcDbEntity
  8
CSLAYER1
  6
CONTINUOUS
 62
     3
100
AcDbLine
 10
49.895724
 20
35.52127449999999
 30
0.0
 11
49.895724
 21
36.5212745
 31
0.0
  0
LINE
  5
FE
330
1E
100
AcDbEntity
  8
CSLAYER1
  6
CONTINUOUS
 62
     3
100
AcDbLine
 10
63.89572399999995
 20
43.5671895
 30
0.0
 11
63.89572399999995
 21
44.52127449999998
 31
0.0
  0
LINE
  5
FF
330
1E
100
AcDbEntity
  8
CSLAYER1
  6
CONTINUOUS
 62
     3
100
AcDbLine
 10
63.89572399999995
 20
44.52127449999998
 30
0.0
 11
93.895724
 21
44.52127449999998
 31
0.0
  0
LINE
  5
100
330
1E
100
AcDbEntity
  8
CSLAYER1
  6
CONTINUOUS
 62
     3
100
AcDbLine
 10
93.895724
 20
44.52127449999998
 30
0.0
 11
127.3970014999999
 21
43.6158345
 31
0.0
  0
ARC
  5
101
330
1E
100
AcDbEntity
  8
CSLAYER1
  6
CONTINUOUS
 62
     3
100
AcDbCircle
 10
127.299851
 20
40.02127449999998
 30
0.0
 40
3.5958725
100
AcDbArc
 50
271.548158
 51
88.451842
  0
LINE
  5
102
330
1E
100
AcDbEntity
  8
CSLAYER1
  6
CONTINUOUS
 62
     3
100
AcDbLine
 10
125.3283225
 20
62.8779255
 30
0.0
 11
84.895724
 21
60.02127449999996
 31
0.0
  0
LINE
  5
103
330
1E
100
AcDbEntity
  8
CSLAYER1
  6
CONTINUOUS
 62
     3
100
AcDbLine
 10
84.895724
 20
60.02127449999996
 30
0.0
 11
69.51076899999995
 21
60.02127449999996
 31
0.0
  0
LINE
  5
104
330
1E
100
AcDbEntity
  8
CSLAYER1
  6
CONTINUOUS
 62
     3
100
AcDbLine
 10
67.90326249999996
 20
79.94175
 30
0.0
 11
65.15159649999995
 21
70.941456
 31
0.0
  0
LINE
  5
105
330
1E
100
AcDbEntity
  8
CSLAYER1
  6
CONTINUOUS
 62
     3
100
AcDbLine
 10
65.15159649999995
 20
70.941456
 30
0.0
 11
64.431415
 21
70.22127449999995
 31
0.0
  0
LINE
  5
106
330
1E
100
AcDbEntity
  8
CSLAYER1
  6
CONTINUOUS
 62
     3
100
AcDbLine
 10
64.431415
 20
70.22127449999995
 30
0.0
 11
62.89572399999995
 21
70.22127449999995
 31
0.0
  0
LINE
  5
107
330
1E
100
AcDbEntity
  8
CSLAYER1
  6
CONTINUOUS
 62
     3
100
AcDbLine
 10
62.89572399999995
 20
70.0212745
 30
0.0
 11
49.895724
 21
70.0212745
 31
0.0
  0
ARC
  5
108
330
1E
100
AcDbEntity
  8
CSLAYER1
  6
CONTINUOUS
 62
     3
100
AcDbCircle
 10
69.51076899999995
 20
85.02127450000001
 30
0.0
 40
25.0
100
AcDbArc
 50
218.3161339999999
 51
270.0
  0
LINE
  5
109
330
1E
100
AcDbEntity
  8
CSLAYER1
  6
CONTINUOUS
 62
     3
100
AcDbLine
 10
49.895724
 20
69.5212745
 30
0.0
 11
49.895724
 21
70.5212745
 31
0.0
  0
LINE
  5
10A
330
1E
100
AcDbEntity
  8
CSLAYER1
  6
CONTINUOUS
 62
     3
100
AcDbLine
 10
49.9751605
 20
70.62127449999995
 30
0.0
 11
63.3834595
 21
70.62127449999995
 31
0.0
  0
LINE
  5
10B
330
1E
100
AcDbEntity
  8
CSLAYER1
  6
CONTINUOUS
 62
     3
100
AcDbLine
 10
62.89572399999995
 20
69.8212745
 30
0.0
 11
64.10080299999996
 21
69.8212745
 31
0.0
  0
ARC
  5
10C
330
1E
100
AcDbEntity
  8
CSLAYER1
  6
CONTINUOUS
 62
     3
100
AcDbCircle
 10
64.10080299999996
 20
72.3212745
 30
0.0
 40
2.5
100
AcDbArc
 50
270.0
 51
349.809411
  0
ARC
  5
10D
330
1E
100
AcDbEntity
  8
CSLAYER1
  6
CONTINUOUS
 62
     3
100
AcDbCircle
 10
64.10080299999996
 20
67.72127449999995
 30
0.0
 40
2.5
100
AcDbArc
 50
66.92608199999999
 51
90.0
  0
LINE
  5
10E
330
1E
100
AcDbEntity
  8
CSLAYER1
  6
CONTINUOUS
 62
     3
100
AcDbLine
 10
69.51076899999995
 20
80.02127450000001
 30
0.0
 11
84.895724
 21
80.02127450000001
 31
0.0
  0
LINE
  5
10F
330
1E
100
AcDbEntity
  8
CSLAYER1
  6
CONTINUOUS
 62
     3
100
AcDbLine
 10
84.895724
 20
80.02127450000001
 30
0.0
 11
125.3283225
 21
77.1646235
 31
0.0
  0
LINE
  5
110
330
1E
100
AcDbEntity
  8
CSLAYER1
  6
CONTINUOUS
 62
     3
100
AcDbLine
 10
130.895724
 20
68.52127450000001
 30
0.0
 11
88.12069599999999
 21
68.52127450000001
 31
0.0
  0
LINE
  5
111
330
1E
100
AcDbEntity
  8
CSLAYER1
  6
CONTINUOUS
 62
     3
100
AcDbLine
 10
88.46258299999997
 20
68.52127450000001
 30
0.0
 11
85.8852465
 21
60.0911865
 31
0.0
  0
ARC
  5
112
330
1E
100
AcDbEntity
  8
CSLAYER1
  6
CONTINUOUS
 62
     3
100
AcDbCircle
 10
76.89572399999995
 20
70.0212745
 30
0.0
 40
10.5
100
AcDbArc
 50
287.75279
 51
3.822554
  0
LINE
  5
113
330
1E
100
AcDbEntity
  8
CSLAYER1
  6
CONTINUOUS
 62
     3
100
AcDbLine
 10
88.12069599999999
 20
71.5212745
 30
0.0
 11
130.895724
 21
71.5212745
 31
0.0
  0
ARC
  5
114
330
1E
100
AcDbEntity
  8
CSLAYER1
  6
CONTINUOUS
 62
     3
100
AcDbCircle
 10
124.9054635
 20
71.17954250000001
 30
0.0
 40
6.0
100
AcDbArc
 50
3.265063999999999
 51
85.95864399999998
  0
ARC
  5
115
330
1E
100
AcDbEntity
  8
CSLAYER1
  6
CONTINUOUS
 62
     3
100
AcDbCircle
 10
124.9054635
 20
68.863006
 30
0.0
 40
6.0
100
AcDbArc
 50
274.0413559999999
 51
356.734936
  0
LINE
  5
116
330
1E
100
AcDbEntity
  8
CSLAYER1
  6
CONTINUOUS
 62
     3
100
AcDbLine
 10
21.1618905
 20
60.02127449999996
 30
0.0
 11
21.1618905
 21
69.674864
 31
0.0
  0
LINE
  5
117
330
1E
100
AcDbEntity
  8
CSLAYER1
  6
CONTINUOUS
 62
     3
100
AcDbLine
 10
21.1618905
 20
69.674864
 30
0.0
 11
21.3618905
 21
70.0212745
 31
0.0
  0
LINE
  5
118
330
1E
100
AcDbEntity
  8
CSLAYER1
  6
CONTINUOUS
 62
     3
100
AcDbLine
 10
21.3618905
 20
70.0212745
 30
0.0
 11
22.5290185
 21
68.854146
 31
0.0
  0
LINE
  5
119
330
1E
100
AcDbEntity
  8
CSLAYER1
  6
CONTINUOUS
 62
     3
100
AcDbLine
 10
22.0618905
 20
70.5212745
 30
0.0
 11
21.5618905
 21
70.0212745
 31
0.0
  0
LINE
  5
11A
330
1E
100
AcDbEntity
  8
CSLAYER1
  6
CONTINUOUS
 62
     3
100
AcDbLine
 10
21.1618905
 20
70.0212745
 30
0.0
 11
21.1618905
 21
80.02127450000001
 31
0.0
  0
LINE
  5
11B
330
1E
100
AcDbEntity
  8
CSLAYER1
  6
CONTINUOUS
 62
     3
100
AcDbLine
 10
21.1618905
 20
80.02127450000001
 30
0.0
 11
28.71386199999999
 21
80.02127450000001
 31
0.0
  0
LINE
  5
11C
330
1E
100
AcDbEntity
  8
CSLAYER1
  6
CONTINUOUS
 62
     3
100
AcDbLine
 10
28.71386199999999
 20
60.02127449999996
 30
0.0
 11
21.1618905
 21
60.02127449999996
 31
0.0
  0
ARC
  5
11D
330
1E
100
AcDbEntity
  8
CSLAYER1
  6
CONTINUOUS
 62
     3
100
AcDbCircle
 10
69.51076899999995
 20
55.02127449999996
 30
0.0
 40
25.0
100
AcDbArc
 50
90.0
 51
141.6838659999999
  0
ARC
  5
11E
330
1E
100
AcDbEntity
  8
CSLAYER1
  6
CONTINUOUS
 62
     3
100
AcDbCircle
 10
76.89572399999995
 20
70.0212745
 30
0.0
 40
10.5
100
AcDbArc
 50
107.7527899999999
 51
169.809411
  0
CIRCLE
  5
11F
330
1E
100
AcDbEntity
  8
CSLAYER1
  6
CONTINUOUS
 62
     3
100
AcDbCircle
 10
76.89572399999995
 20
70.0212745
 30
0.0
 40
2.049999999999998
  0
CIRCLE
  5
120
330
1E
100
AcDbEntity
  8
CSLAYER1
  6
CONTINUOUS
 62
     3
100
AcDbCircle
 10
76.89572399999995
 20
70.0212745
 30
0.0
 40
6.4
  0
ARC
  5
121
330
1E
100
AcDbEntity
  8
CSLAYER1
  6
CONTINUOUS
 62
     3
100
AcDbCircle
 10
88.12069599999999
 20
69.2712745
 30
0.0
 40
0.75
100
AcDbArc
 50
176.1774459999999
 51
270.0
  0
ARC
  5
122
330
1E
100
AcDbEntity
  8
CSLAYER1
  6
CONTINUOUS
 62
     3
100
AcDbCircle
 10
88.12069599999999
 20
70.7712745
 30
0.0
 40
0.75
100
AcDbArc
 50
90.0
 51
183.8225539999998
  0
LINE
  5
123
330
1E
100
AcDbEntity
  8
CSLAYER1
  6
CONTINUOUS
 62
     3
100
AcDbLine
 10
85.8852465
 20
44.52127449999998
 30
0.0
 11
85.8852465
 21
40.77127449999998
 31
0.0
  0
LINE
  5
124
330
1E
100
AcDbEntity
  8
CSLAYER1
  6
CONTINUOUS
 62
     3
100
AcDbLine
 10
85.13524649999995
 20
40.02127449999998
 30
0.0
 11
68.65326249999999
 21
40.02127449999998
 31
0.0
  0
ARC
  5
125
330
1E
100
AcDbEntity
  8
CSLAYER1
  6
CONTINUOUS
 62
     3
100
AcDbCircle
 10
68.65326249999999
 20
39.27127449999998
 30
0.0
 40
0.75
100
AcDbArc
 50
90.0
 51
180.0
  0
LINE
  5
126
330
1E
100
AcDbEntity
  8
CSLAYER1
  6
CONTINUOUS
 62
     3
100
AcDbLine
 10
67.90326249999996
 20
39.27127449999998
 30
0.0
 11
67.90326249999996
 21
35.52127449999999
 31
0.0
  0
LINE
  5
127
330
1E
100
AcDbEntity
  8
CSLAYER1
  6
CONTINUOUS
 62
     3
100
AcDbLine
 10
73.694162
 20
35.52127449999999
 30
0.0
 11
73.694162
 21
39.52127449999998
 31
0.0
  0
LINE
  5
128
330
1E
100
AcDbEntity
  8
CSLAYER1
  6
CONTINUOUS
 62
     3
100
AcDbLine
 10
73.694162
 20
39.52127449999998
 30
0.0
 11
74.194162
 21
40.02127449999998
 31
0.0
  0
LINE
  5
129
330
1E
100
AcDbEntity
  8
CSLAYER1
  6
CONTINUOUS
 62
     3
100
AcDbLine
 10
79.597286
 20
40.02127449999998
 30
0.0
 11
80.09728599999995
 21
40.52127449999999
 31
0.0
  0
LINE
  5
12A
330
1E
100
AcDbEntity
  8
CSLAYER1
  6
CONTINUOUS
 62
     3
100
AcDbLine
 10
80.09728599999995
 20
40.52127449999999
 30
0.0
 11
80.09728599999995
 21
44.52127449999998
 31
0.0
  0
ARC
  5
12B
330
1E
100
AcDbEntity
  8
CSLAYER1
  6
CONTINUOUS
 62
     3
100
AcDbCircle
 10
85.13524649999995
 20
40.77127449999998
 30
0.0
 40
0.75
100
AcDbArc
 50
270.0
 51
0.0
  0
LINE
  5
12C
330
1E
100
AcDbEntity
  8
CSLAYER1
  6
CENTER
 62
     4
100
AcDbLine
 10
21.5618905
 20
70.0212745
 30
0.0
 11
33.2128905
 21
70.0212745
 31
0.0
  0
LINE
  5
12D
330
1E
100
AcDbEntity
  8
CSLAYER1
  6
CENTER
 62
     4
100
AcDbLine
 10
21.1618905
 20
70.0212745
 30
0.0
 11
18.625176
 21
70.0212745
 31
0.0
  0
LINE
  5
12E
330
1E
100
AcDbEntity
  8
CSLAYER1
  6
CENTER
 62
     4
100
AcDbLine
 10
48.095724
 20
70.0212745
 30
0.0
 11
49.895724
 21
70.0212745
 31
0.0
  0
LINE
  5
12F
330
1E
100
AcDbEntity
  8
CSLAYER1
  6
CENTER
 62
     4
100
AcDbLine
 10
76.89572399999995
 20
55.62127449999995
 30
0.0
 11
76.89572399999995
 21
83.82127449999996
 31
0.0
  0
LINE
  5
130
330
1E
100
AcDbEntity
  8
CSLAYER1
  6
CENTER
 62
     4
100
AcDbLine
 10
62.89572399999995
 20
70.0212745
 30
0.0
 11
132.095724
 21
70.0212745
 31
0.0
  0
LINE
  5
131
330
1E
100
AcDbEntity
  8
CSLAYER1
  6
CENTER
 62
     4
100
AcDbLine
 10
136.895724
 20
40.02127449999998
 30
0.0
 11
123.995724
 21
40.02127449999998
 31
0.0
  0
LINE
  5
132
330
1E
100
AcDbEntity
  8
CSLAYER1
  6
CENTER
 62
     4
100
AcDbLine
 10
92.89572399999995
 20
40.02127449999998
 30
0.0
 11
85.13524649999995
 21
40.02127449999998
 31
0.0
  0
LINE
  5
133
330
1E
100
AcDbEntity
  8
CSLAYER1
  6
CENTER
 62
     4
100
AcDbLine
 10
76.89572399999995
 20
32.296703
 30
0.0
 11
76.89572399999995
 21
48.345846
 31
0.0
  0
LINE
  5
134
330
1E
100
AcDbEntity
  8
CSLAYER1
  6
CENTER
 62
     4
100
AcDbLine
 10
68.65326249999999
 20
40.02127449999998
 30
0.0
 11
64.9755205
 21
40.02127449999998
 31
0.0
  0
LINE
  5
135
330
1E
100
AcDbEntity
  8
CSLAYER1
  6
DASHED
 62
     4
100
AcDbLine
 10
63.89572399999995
 20
43.5671895
 30
0.0
 11
63.89572399999995
 21
36.5629415
 31
0.0
  0
ARC
  5
136
330
1E
100
AcDbEntity
  8
CSLAYER1
  6
DASHED
 62
     4
100
AcDbCircle
 10
62.89572399999995
 20
36.5629415
 30
0.0
 40
1.0
100
AcDbArc
 50
270.0
 51
0.0
  0
LINE
  5
137
330
1E
100
AcDbEntity
  8
CSLAYER1
  6
CENTER
 62
     4
100
AcDbLine
 10
92.89572399999995
 20
65.12958349999995
 30
0.0
 11
92.89572399999995
 21
74.7775055
 31
0.0
  0
LINE
  5
138
330
1E
100
AcDbEntity
  8
CSLAYER1
  6
CONTINUOUS
 62
     3
100
AcDbLine
 10
22.0618905
 20
70.5212745
 30
0.0
 11
28.71386199999999
 21
80.02127450000001
 31
0.0
  0
LINE
  5
139
330
1E
100
AcDbEntity
  8
CSLAYER1
  6
CONTINUOUS
 62
     3
100
AcDbLine
 10
22.5290185
 20
68.854146
 30
0.0
 11
28.71386199999999
 21
60.02127449999996
 31
0.0
  0
LINE
  5
13A
330
1E
100
AcDbEntity
  8
CSLAYER1
  6
CONTINUOUS
 62
     3
100
AcDbLine
 10
50.4418425
 20
68.854146
 30
0.0
 11
63.37758
 21
68.854146
 31
0.0
  0
ARC
  5
13B
330
1E
100
AcDbEntity
  8
CSLAYER1
  6
CONTINUOUS
 62
     3
100
AcDbCircle
 10
63.7844785
 20
25.0712745
 30
0.0
 40
18.0
100
AcDbArc
 50
91.20408799999999
 51
140.497558
  0
ARC
  5
13C
330
1E
100
AcDbEntity
  8
CSLAYER1
  6
CONTINUOUS
 62
     3
100
AcDbCircle
 10
63.39572399999995
 20
43.5671895
 30
0.0
 40
0.5
100
AcDbArc
 50
271.2040879999999
 51
0.0
  0
ARC
  5
13E
330
1E
100
AcDbEntity
  8
CSLAYER1
  6
CONTINUOUS
 62
     3
100
AcDbCircle
 10
26.38359499999999
 20
70.0212745
 30
0.0
 40
37.5
100
AcDbArc
 50
345.997152
 51
359.6944209999998
  0
ARC
  5
13F
330
1E
100
AcDbEntity
  8
CSLAYER1
  6
CONTINUOUS
 62
     3
100
AcDbCircle
 10
63.3834595
 20
70.12127449999995
 30
0.0
 40
0.5
100
AcDbArc
 50
0.154854
 51
90.0
  0
ARC
  5
140
330
1E
100
AcDbEntity
  8
CSLAYER1
  6
CONTINUOUS
 62
     3
100
AcDbCircle
 10
63.37758
 20
69.354146
 30
0.0
 40
0.5
100
AcDbArc
 50
270.0
 51
358.966873
  0
LINE
  5
143
330
1E
100
AcDbEntity
  8
CSLAYER1
  6
CONTINUOUS
 62
     3
100
AcDbLine
 10
21.1618905
 20
70.0212745
 30
0.0
 11
21.5618905
 21
70.0212745
 31
0.0
  0
LINE
  5
14B
330
1E
100
AcDbEntity
  8
CSLAYER1
  6
CONTINUOUS
 62
     3
100
AcDbLine
 10
72.3090545
 20
5.7159605
 30
0.0
 11
60.79736750000001
 21
4.6454645
 31
0.0
  0
LINE
  5
14C
330
1E
100
AcDbEntity
  8
CSLAYER1
  6
CONTINUOUS
 62
     3
100
AcDbLine
 10
59.1894035
 20
25.9967905
 30
0.0
 11
55.61619749999995
 21
17.28994549999999
 31
0.0
  0
LINE
  5
14D
330
1E
100
AcDbEntity
  8
CSLAYER1
  6
CONTINUOUS
 62
     3
100
AcDbLine
 10
55.61619749999995
 20
17.28994549999999
 30
0.0
 11
54.83242650000001
 21
16.639541
 31
0.0
  0
LINE
  5
14E
330
1E
100
AcDbEntity
  8
CSLAYER1
  6
CONTINUOUS
 62
     3
100
AcDbLine
 10
54.83242650000001
 20
16.639541
 30
0.0
 11
53.30333249999999
 21
16.7817345
 31
0.0
  0
LINE
  5
14F
330
1E
100
AcDbEntity
  8
CSLAYER1
  6
CONTINUOUS
 62
     3
100
AcDbLine
 10
53.28481400000001
 20
16.582594
 30
0.0
 11
40.34066099999999
 21
17.7862975
 31
0.0
  0
ARC
  5
150
330
1E
100
AcDbEntity
  8
CSLAYER1
  6
CONTINUOUS
 62
     3
100
AcDbCircle
 10
58.482553
 20
29.5380665
 30
0.0
 40
25.0
100
AcDbArc
 50
223.628909
 51
275.3127749999999
  0
LINE
  5
151
330
1E
100
AcDbEntity
  8
CSLAYER1
  6
CONTINUOUS
 62
     3
100
AcDbLine
 10
40.3869575
 20
12.2884455
 30
0.0
 11
40.34066099999999
 21
12.7862975
 31
0.0
  0
LINE
  5
152
330
1E
100
AcDbEntity
  8
CSLAYER1
  6
CONTINUOUS
 62
     3
100
AcDbLine
 10
40.475312
 20
18.37636449999999
 30
0.0
 11
53.82601
 21
17.1348555
 31
0.0
  0
LINE
  5
153
330
1E
100
AcDbEntity
  8
CSLAYER1
  6
CONTINUOUS
 62
     3
100
AcDbLine
 10
53.30333249999999
 20
13.7908605
 30
0.0
 11
54.50323499999996
 21
13.902442
 31
0.0
  0
ARC
  5
154
330
1E
100
AcDbEntity
  8
CSLAYER1
  6
CONTINUOUS
 62
     3
100
AcDbCircle
 10
54.2717535
 20
16.39170199999999
 30
0.0
 40
2.5
100
AcDbArc
 50
275.3127749999999
 51
355.122186
  0
ARC
  5
155
330
1E
100
AcDbEntity
  8
CSLAYER1
  6
CONTINUOUS
 62
     3
100
AcDbCircle
 10
54.2717535
 20
14.180893
 30
0.0
 40
2.5
100
AcDbArc
 50
26.241894
 51
84.687225
  0
LINE
  5
156
330
1E
100
AcDbEntity
  8
CSLAYER1
  6
CONTINUOUS
 62
     3
100
AcDbLine
 10
60.79736750000001
 20
25.9271305
 30
0.0
 11
67.22467149999996
 21
25.329442
 31
0.0
  0
LINE
  5
157
330
1E
100
AcDbEntity
  8
CSLAYER1
  6
CONTINUOUS
 62
     3
100
AcDbLine
 10
17.23842
 20
2.786297499999998
 30
0.0
 11
17.23842
 21
12.43988749999999
 31
0.0
  0
LINE
  5
158
330
1E
100
AcDbEntity
  8
CSLAYER1
  6
CONTINUOUS
 62
     3
100
AcDbLine
 10
17.23842
 20
12.43988749999999
 30
0.0
 11
17.43842
 21
12.7862975
 31
0.0
  0
LINE
  5
159
330
1E
100
AcDbEntity
  8
CSLAYER1
  6
CONTINUOUS
 62
     3
100
AcDbLine
 10
17.43842
 20
12.7862975
 30
0.0
 11
18.605548
 21
11.61916949999999
 31
0.0
  0
LINE
  5
15A
330
1E
100
AcDbEntity
  8
CSLAYER1
  6
CONTINUOUS
 62
     3
100
AcDbLine
 10
18.13842
 20
18.2862975
 30
0.0
 11
17.63842
 21
17.7862975
 31
0.0
  0
LINE
  5
15B
330
1E
100
AcDbEntity
  8
CSLAYER1
  6
CONTINUOUS
 62
     3
100
AcDbLine
 10
17.23842
 20
17.7862975
 30
0.0
 11
17.23842
 21
27.78629749999999
 31
0.0
  0
LINE
  5
15C
330
1E
100
AcDbEntity
  8
CSLAYER1
  6
CONTINUOUS
 62
     3
100
AcDbLine
 10
17.23842
 20
27.78629749999999
 30
0.0
 11
24.7903915
 21
27.78629749999999
 31
0.0
  0
LINE
  5
15D
330
1E
100
AcDbEntity
  8
CSLAYER1
  6
CONTINUOUS
 62
     3
100
AcDbLine
 10
24.7903915
 20
2.786297499999998
 30
0.0
 11
17.23842
 21
2.786297499999998
 31
0.0
  0
ARC
  5
15E
330
1E
100
AcDbEntity
  8
CSLAYER1
  6
CONTINUOUS
 62
     3
100
AcDbCircle
 10
58.482553
 20
1.034528499999999
 30
0.0
 40
25.0
100
AcDbArc
 50
84.687225
 51
136.3710909999997
  0
ARC
  5
15F
330
1E
100
AcDbEntity
  8
CSLAYER1
  6
CONTINUOUS
 62
     3
100
AcDbCircle
 10
67.22467149999996
 20
15.2862975
 30
0.0
 40
10.5
100
AcDbArc
 50
113.0655649999999
 51
175.122186
  0
CIRCLE
  5
160
330
1E
100
AcDbEntity
  8
CSLAYER1
  6
CONTINUOUS
 62
     3
100
AcDbCircle
 10
67.22467149999996
 20
15.2862975
 30
0.0
 40
2.049999999999998
  0
CIRCLE
  5
161
330
1E
100
AcDbEntity
  8
CSLAYER1
  6
CONTINUOUS
 62
     3
100
AcDbCircle
 10
67.22467149999996
 20
15.2862975
 30
0.0
 40
6.4
  0
LINE
  5
162
330
1E
100
AcDbEntity
  8
CSLAYER1
  6
CENTER
 62
     4
100
AcDbLine
 10
17.63842
 20
15.2862975
 30
0.0
 11
29.28942
 21
15.2862975
 31
0.0
  0
LINE
  5
163
330
1E
100
AcDbEntity
  8
CSLAYER1
  6
CENTER
 62
     4
100
AcDbLine
 10
17.23842
 20
15.2862975
 30
0.0
 11
14.701706
 21
15.2862975
 31
0.0
  0
LINE
  5
164
330
1E
100
AcDbEntity
  8
CSLAYER1
  6
CENTER
 62
     4
100
AcDbLine
 10
67.22467149999996
 20
2.6703615
 30
0.0
 11
67.22467149999996
 21
29.08629749999999
 31
0.0
  0
LINE
  5
165
330
1E
100
AcDbEntity
  8
CSLAYER1
  6
CENTER
 62
     4
100
AcDbLine
 10
38.77669949999999
 20
15.2862975
 30
0.0
 11
76.4096485
 21
15.2862975
 31
0.0
  0
LINE
  5
166
330
1E
100
AcDbEntity
  8
CSLAYER1
  6
CONTINUOUS
 62
     3
100
AcDbLine
 10
18.13842
 20
18.2862975
 30
0.0
 11
24.7903915
 21
27.78629749999999
 31
0.0
  0
LINE
  5
167
330
1E
100
AcDbEntity
  8
CSLAYER1
  6
CONTINUOUS
 62
     3
100
AcDbLine
 10
18.605548
 20
11.61916949999999
 30
0.0
 11
24.7903915
 21
2.786297499999998
 31
0.0
  0
LINE
  5
168
330
1E
100
AcDbEntity
  8
CSLAYER1
  6
CONTINUOUS
 62
     3
100
AcDbLine
 10
40.99250100000001
 20
11.67474949999999
 30
0.0
 11
53.87266750000001
 21
12.872503
 31
0.0
  0
ARC
  5
169
330
1E
100
AcDbEntity
  8
CSLAYER1
  6
CONTINUOUS
 62
     3
100
AcDbCircle
 10
16.9295385
 20
10.60924849999999
 30
0.0
 40
37.5
100
AcDbArc
 50
351.309926
 51
5.007195999999998
  0
ARC
  5
16A
330
1E
100
AcDbEntity
  8
CSLAYER1
  6
CONTINUOUS
 62
     3
100
AcDbCircle
 10
53.77971399999999
 20
16.6370035
 30
0.0
 40
0.5
100
AcDbArc
 50
6.224183999999998
 51
84.687225
  0
ARC
  5
16B
330
1E
100
AcDbEntity
  8
CSLAYER1
  6
CONTINUOUS
 62
     3
100
AcDbCircle
 10
53.8263714999999
 20
13.37035499999999
 30
0.0
 40
0.5
100
AcDbArc
 50
275.3127749999999
 51
4.279647999999999
  0
LINE
  5
16C
330
1E
100
AcDbEntity
  8
CSLAYER1
  6
CONTINUOUS
 62
     3
100
AcDbLine
 10
17.23842
 20
17.7862975
 30
0.0
 11
17.63842
 21
17.7862975
 31
0.0
  0
LINE
  5
16E
330
1E
100
AcDbEntity
  8
CSLAYER1
  6
CONTINUOUS
 62
     3
100
AcDbLine
 10
62.89572399999995
 20
70.22127449999995
 30
0.0
 11
62.89572399999995
 21
69.8212745
 31
0.0
  0
ARC
  5
16F
330
1E
100
AcDbEntity
  8
CSLAYER1
  6
CONTINUOUS
 62
     3
100
AcDbCircle
 10
26.38359499999999
 20
70.0212745
 30
0.0
 40
37.5
100
AcDbArc
 50
0.305579
 51
14.002848
  0
LINE
  5
170
330
1E
100
AcDbEntity
  8
CSLAYER1
  6
CONTINUOUS
 62
     3
100
AcDbLine
 10
53.30333249999999
 20
16.7817345
 30
0.0
 11
53.28481400000001
 21
16.582594
 31
0.0
  0
ARC
  5
171
330
1E
100
AcDbEntity
  8
CSLAYER1
  6
CONTINUOUS
 62
     3
100
AcDbCircle
 10
16.9295385
 20
19.9633465
 30
0.0
 40
37.5
100
AcDbArc
 50
354.9928039999999
 51
8.690074
  0
LINE
  5
172
330
1E
100
AcDbEntity
  8
CSLAYER1
  6
CONTINUOUS
 62
     3
100
AcDbLine
 10
40.34066099999999
 20
17.7862975
 30
0.0
 11
40.3869575
 21
18.28414949999999
 31
0.0
  0
LINE
  5
173
330
1E
100
AcDbEntity
  8
CSLAYER1
  6
CONTINUOUS
 62
     3
100
AcDbLine
 10
53.28481400000001
 20
13.990001
 30
0.0
 11
53.30333249999999
 21
13.7908605
 31
0.0
  0
LINE
  5
174
330
1E
100
AcDbEntity
  8
CSLAYER1
  6
CONTINUOUS
 62
     3
100
AcDbLine
 10
40.34066099999999
 20
12.7862975
 30
0.0
 11
53.28481400000001
 21
13.990001
 31
0.0
  0
LINE
  5
175
330
1E
100
AcDbEntity
  8
CSLAYER1
  6
CONTINUOUS
 62
     3
100
AcDbLine
 10
70.59978
 20
25.6433005
 30
0.0
 11
63.110937
 21
24.9468975
 31
0.0
  0
LINE
  5
177
330
1E
100
AcDbEntity
  8
CSLAYER1
  6
DOT
 62
     3
100
AcDbLine
 10
2.5
 20
0.5
 30
0.0
 11
142.0
 21
0.5
 31
0.0
  0
LINE
  5
178
330
1E
100
AcDbEntity
  8
CSLAYER1
  6
DOT
 62
     3
100
AcDbLine
 10
142.0
 20
0.5
 30
0.0
 11
142.0
 21
97.5
 31
0.0
  0
LINE
  5
179
330
1E
100
AcDbEntity
  8
CSLAYER1
  6
DOT
 62
     3
100
AcDbLine
 10
142.0
 20
97.5
 30
0.0
 11
2.5
 21
97.5
 31
0.0
  0
LINE
  5
17A
330
1E
100
AcDbEntity
  8
CSLAYER1
  6
DOT
 62
     3
100
AcDbLine
 10
2.5
 20
97.5
 30
0.0
 11
2.5
 21
0.5
 31
0.0
  0
LINE
  5
17B
330
1E
100
AcDbEntity
  8
CSLAYER1
  6
DOT
 62
     3
100
AcDbLine
 10
142.0
 20
49.0
 30
0.0
 11
144.0
 21
49.0
 31
0.0
  0
LINE
  5
17C
330
1E
100
AcDbEntity
  8
CSLAYER1
  6
DOT
 62
     3
100
AcDbLine
 10
2.5
 20
49.0
 30
0.0
 11
0.5
 21
49.0
 31
0.0
  0
LINE
  5
17D
330
1E
100
AcDbEntity
  8
CSLAYER1
  6
DOT
 62
     3
100
AcDbLine
 10
72.25
 20
97.5
 30
0.0
 11
72.25
 21
99.50000000000001
 31
0.0
  0
TEXT
  5
1D0
330
1E
100
AcDbEntity
  8
CSLAYER1
 62
     4
100
AcDbText
 10
61.89572549999995
 20
88.68211350000001
 30
0.0
 40
1.5
  1
27
 41
1.200000000000017
 51
15.0
  7
FX_FONT
 72
     5
 11
64.8957255
 21
88.68211350000001
 31
0.0
100
AcDbText
  0
LINE
  5
1D1
330
1E
100
AcDbEntity
  8
CSLAYER1
 62
     4
100
AcDbLine
 10
49.895724
 20
88.18211600000001
 30
0.0
 11
76.89572399999995
 21
88.18211600000001
 31
0.0
  0
LINE
  5
1D2
330
1E
100
AcDbEntity
  8
CSLAYER1
 62
     4
100
AcDbLine
 10
49.895724
 20
88.18211600000001
 30
0.0
 11
51.34461249999995
 21
88.57034449999996
 31
0.0
  0
LINE
  5
1D3
330
1E
100
AcDbEntity
  8
CSLAYER1
 62
     4
100
AcDbLine
 10
49.895724
 20
88.18211600000001
 30
0.0
 11
51.34461249999995
 21
87.79388749999997
 31
0.0
  0
LINE
  5
1D4
330
1E
100
AcDbEntity
  8
CSLAYER1
 62
     4
100
AcDbLine
 10
76.89572399999995
 20
88.18211600000001
 30
0.0
 11
75.44683499999995
 21
88.57034449999996
 31
0.0
  0
LINE
  5
1D5
330
1E
100
AcDbEntity
  8
CSLAYER1
 62
     4
100
AcDbLine
 10
76.89572399999995
 20
88.18211600000001
 30
0.0
 11
75.44683499999995
 21
87.79388749999997
 31
0.0
  0
LINE
  5
1D6
330
1E
100
AcDbEntity
  8
CSLAYER1
 62
     4
100
AcDbLine
 10
49.895724
 20
71.02127450000001
 30
0.0
 11
49.895724
 21
88.682116
 31
0.0
  0
LINE
  5
1D7
330
1E
100
AcDbEntity
  8
CSLAYER1
 62
     4
100
AcDbLine
 10
76.89572399999995
 20
84.32127449999995
 30
0.0
 11
76.89572399999995
 21
88.682116
 31
0.0
  0
TEXT
  5
1D8
330
1E
100
AcDbEntity
  8
CSLAYER1
 62
     4
100
AcDbText
 10
42.3241385
 20
66.27127099999995
 30
0.0
 40
1.5
  1
20~21
 50
90.0
 41
1.111111111111117
 51
15.0
  7
FX_FONT
 72
     5
 11
42.3241385
 21
73.771271
 31
0.0
100
AcDbText
  0
LINE
  5
1D9
330
1E
100
AcDbEntity
  8
CSLAYER1
 62
     4
100
AcDbLine
 10
42.824139
 20
60.02127449999996
 30
0.0
 11
42.824139
 21
80.02127450000001
 31
0.0
  0
LINE
  5
1DA
330
1E
100
AcDbEntity
  8
CSLAYER1
 62
     4
100
AcDbLine
 10
42.824139
 20
60.02127449999996
 30
0.0
 11
42.4359105
 21
61.47016299999995
 31
0.0
  0
LINE
  5
1DB
330
1E
100
AcDbEntity
  8
CSLAYER1
 62
     4
100
AcDbLine
 10
42.824139
 20
60.02127449999996
 30
0.0
 11
43.21236749999999
 21
61.47016299999995
 31
0.0
  0
LINE
  5
1DC
330
1E
100
AcDbEntity
  8
CSLAYER1
 62
     4
100
AcDbLine
 10
42.824139
 20
80.02127450000001
 30
0.0
 11
42.4359105
 21
78.57238549999995
 31
0.0
  0
LINE
  5
1DD
330
1E
100
AcDbEntity
  8
CSLAYER1
 62
     4
100
AcDbLine
 10
42.824139
 20
80.02127450000001
 30
0.0
 11
43.21236749999999
 21
78.57238549999995
 31
0.0
  0
LINE
  5
1DE
330
1E
100
AcDbEntity
  8
CSLAYER1
 62
     4
100
AcDbLine
 10
69.01076899999996
 20
60.02127449999996
 30
0.0
 11
42.324139
 21
60.02127449999996
 31
0.0
  0
LINE
  5
1DF
330
1E
100
AcDbEntity
  8
CSLAYER1
 62
     4
100
AcDbLine
 10
69.01076899999996
 20
80.02127450000001
 30
0.0
 11
42.324139
 21
80.02127450000001
 31
0.0
  0
TEXT
  5
1E0
330
1E
100
AcDbEntity
  8
CSLAYER1
 62
     4
100
AcDbText
 10
44.74575399999999
 20
67.70740500000001
 30
0.0
 40
1.5
  1
(1)
 50
90.0
 41
1.285714285714285
 51
15.0
  7
FX_FONT
 72
     5
 11
44.74575399999999
 21
72.20740500000001
 31
0.0
100
AcDbText
  0
LINE
  5
1E1
330
1E
100
AcDbEntity
  8
CSLAYER1
 62
     4
100
AcDbLine
 10
45.824139
 20
69.5212745
 30
0.0
 11
45.824139
 21
70.5212745
 31
0.0
  0
LINE
  5
1E2
330
1E
100
AcDbEntity
  8
CSLAYER1
 62
     4
100
AcDbLine
 10
49.395724
 20
69.5212745
 30
0.0
 11
45.324139
 21
69.5212745
 31
0.0
  0
LINE
  5
1E3
330
1E
100
AcDbEntity
  8
CSLAYER1
 62
     4
100
AcDbLine
 10
49.395724
 20
70.5212745
 30
0.0
 11
45.324139
 21
70.5212745
 31
0.0
  0
LINE
  5
1E4
330
1E
100
AcDbEntity
  8
CSLAYER1
 62
     4
100
AcDbLine
 10
45.824139
 20
66.5212745
 30
0.0
 11
45.824139
 21
69.5212745
 31
0.0
  0
LINE
  5
1E5
330
1E
100
AcDbEntity
  8
CSLAYER1
 62
     4
100
AcDbLine
 10
45.824139
 20
69.5212745
 30
0.0
 11
45.43591049999999
 21
68.07238549999995
 31
0.0
  0
LINE
  5
1E6
330
1E
100
AcDbEntity
  8
CSLAYER1
 62
     4
100
AcDbLine
 10
45.824139
 20
69.5212745
 30
0.0
 11
46.2123675
 21
68.07238549999995
 31
0.0
  0
LINE
  5
1E7
330
1E
100
AcDbEntity
  8
CSLAYER1
 62
     4
100
AcDbLine
 10
45.824139
 20
70.5212745
 30
0.0
 11
45.824139
 21
73.52127450000001
 31
0.0
  0
LINE
  5
1E8
330
1E
100
AcDbEntity
  8
CSLAYER1
 62
     4
100
AcDbLine
 10
45.824139
 20
70.5212745
 30
0.0
 11
45.43591049999999
 21
71.97016299999996
 31
0.0
  0
LINE
  5
1E9
330
1E
100
AcDbEntity
  8
CSLAYER1
 62
     4
100
AcDbLine
 10
45.824139
 20
70.5212745
 30
0.0
 11
46.2123675
 21
71.97016299999996
 31
0.0
  0
TEXT
  5
1EA
330
1E
100
AcDbEntity
  8
CSLAYER1
 62
     4
100
AcDbText
 10
58.1909515
 20
63.68069649999999
 30
0.0
 40
1.5
  1
R25
 50
63.24289215515655
 41
1.125000014698287
 51
15.0
  7
FX_FONT
 72
     5
 11
60.21689300000001
 21
67.6988505
 31
0.0
100
AcDbText
  0
LINE
  5
1EB
330
1E
100
AcDbEntity
  8
CSLAYER1
 62
     4
100
AcDbLine
 10
58.255539
 20
62.69819699999995
 30
0.0
 11
63.01393499999996
 21
72.13576850000001
 31
0.0
  0
LINE
  5
1EC
330
1E
100
AcDbEntity
  8
CSLAYER1
 62
     4
100
AcDbLine
 10
58.255539
 20
62.69819699999995
 30
0.0
 11
58.5611835
 21
64.16672700000001
 31
0.0
  0
LINE
  5
1ED
330
1E
100
AcDbEntity
  8
CSLAYER1
 62
     4
100
AcDbLine
 10
58.255539
 20
62.69819699999995
 30
0.0
 11
59.25450049999994
 21
63.81715899999999
 31
0.0
  0
LINE
  5
1EE
330
1E
100
AcDbEntity
  8
CSLAYER1
  6
CONTINUOUS
 62
     4
100
AcDbLine
 10
76.365145
 20
68.0411265
 30
0.0
 11
72.72340699999995
 21
54.4499755
 31
0.0
  0
LINE
  5
1EF
330
1E
100
AcDbEntity
  8
CSLAYER1
  6
CONTINUOUS
 62
     4
100
AcDbLine
 10
76.365145
 20
68.0411265
 30
0.0
 11
76.365145
 21
66.5411265
 31
0.0
  0
LINE
  5
1F0
330
1E
100
AcDbEntity
  8
CSLAYER1
  6
CONTINUOUS
 62
     4
100
AcDbLine
 10
76.365145
 20
68.0411265
 30
0.0
 11
75.61514499999995
 21
66.74208849999995
 31
0.0
  0
LINE
  5
1F1
330
1E
100
AcDbEntity
  8
CSLAYER1
  6
CONTINUOUS
 62
     4
100
AcDbLine
 10
72.72340699999995
 20
54.4499755
 30
0.0
 11
65.72340699999999
 21
54.4499755
 31
0.0
  0
TEXT
  5
1F2
330
1E
100
AcDbEntity
  8
CSLAYER1
 62
     4
100
AcDbText
 10
66.223404
 20
54.94997399999999
 30
0.0
 40
1.5
  1
%%c4.1
 41
1.142857142857142
 51
15.0
  7
FX_FONT
 72
     5
 11
72.223404
 21
54.94997399999999
 31
0.0
100
AcDbText
  0
TEXT
  5
1F3
330
1E
100
AcDbEntity
  8
CSLAYER1
 62
     4
100
AcDbText
 10
10.26584549999999
 20
75.475189
 30
0.0
 40
1.5
  1
(0.4)
 41
1.153846153846153
 51
15.0
  7
FX_FONT
 72
     5
 11
17.76584549999998
 21
75.475189
 31
0.0
100
AcDbText
  0
LINE
  5
1F4
330
1E
100
AcDbEntity
  8
CSLAYER1
 62
     4
100
AcDbLine
 10
16.3909795
 20
74.79218499999991
 30
0.0
 11
16.7909795
 21
74.79218499999991
 31
0.0
  0
LINE
  5
1F5
330
1E
100
AcDbEntity
  8
CSLAYER1
 62
     4
100
AcDbLine
 10
20.80833699999999
 20
70.37482750000001
 30
0.0
 11
16.037426
 21
75.14573850000001
 31
0.0
  0
LINE
  5
1F6
330
1E
100
AcDbEntity
  8
CSLAYER1
 62
     4
100
AcDbLine
 10
21.20833699999999
 20
70.37482750000001
 30
0.0
 11
16.437426
 21
75.14573850000001
 31
0.0
  0
LINE
  5
1F7
330
1E
100
AcDbEntity
  8
CSLAYER1
 62
     4
100
AcDbLine
 10
13.3909795
 20
74.79218499999991
 30
0.0
 11
16.3909795
 21
74.79218499999991
 31
0.0
  0
LINE
  5
1F8
330
1E
100
AcDbEntity
  8
CSLAYER1
 62
     4
100
AcDbLine
 10
16.3909795
 20
74.79218499999991
 30
0.0
 11
14.94209099999999
 21
75.18041349999996
 31
0.0
  0
LINE
  5
1F9
330
1E
100
AcDbEntity
  8
CSLAYER1
 62
     4
100
AcDbLine
 10
16.3909795
 20
74.79218499999991
 30
0.0
 11
14.94209099999999
 21
74.40395649999991
 31
0.0
  0
LINE
  5
1FA
330
1E
100
AcDbEntity
  8
CSLAYER1
 62
     4
100
AcDbLine
 10
16.7909795
 20
74.79218499999991
 30
0.0
 11
19.7909795
 21
74.79218499999991
 31
0.0
  0
LINE
  5
1FB
330
1E
100
AcDbEntity
  8
CSLAYER1
 62
     4
100
AcDbLine
 10
16.7909795
 20
74.79218499999991
 30
0.0
 11
18.2398685
 21
75.18041349999996
 31
0.0
  0
LINE
  5
1FC
330
1E
100
AcDbEntity
  8
CSLAYER1
 62
     4
100
AcDbLine
 10
16.7909795
 20
74.79218499999991
 30
0.0
 11
18.2398685
 21
74.40395649999991
 31
0.0
  0
TEXT
  5
1FD
330
1E
100
AcDbEntity
  8
CSLAYER1
 62
     4
100
AcDbText
 10
40.9769935
 20
39.04627599999999
 30
0.0
 40
1.5
  1
9   
 50
90.0
 41
1.42857142857143
 51
15.0
  7
FX_FONT
 72
     5
 11
40.9769935
 21
45.046276
 31
0.0
100
AcDbText
  0
TEXT
  5
1FE
330
1E
100
AcDbEntity
  8
CSLAYER1
 62
     4
100
AcDbText
 10
40.22699349999999
 20
45.046276
 30
0.0
 40
0.75
  1
  0
 50
90.0
 41
1.607142857142857
 51
15.0
  7
FX_FONT
 72
     5
 11
40.22699349999999
 21
47.29627599999999
 31
0.0
100
AcDbText
  0
TEXT
  5
1FF
330
1E
100
AcDbEntity
  8
CSLAYER1
 62
     4
100
AcDbText
 10
40.9769935
 20
45.046276
 30
0.0
 40
0.75
  1
-0.15
 50
90.0
 41
1.071428571428571
 51
15.0
  7
FX_FONT
 72
     5
 11
40.9769935
 21
48.796276
 31
0.0
100
AcDbText
  0
LINE
  5
200
330
1E
100
AcDbEntity
  8
CSLAYER1
 62
     4
100
AcDbLine
 10
49.395724
 20
35.52127449999999
 30
0.0
 11
40.97699149999999
 21
35.52127449999999
 31
0.0
  0
LINE
  5
201
330
1E
100
AcDbEntity
  8
CSLAYER1
 62
     4
100
AcDbLine
 10
63.39572399999995
 20
44.52127449999998
 30
0.0
 11
40.97699149999999
 21
44.52127449999998
 31
0.0
  0
LINE
  5
202
330
1E
100
AcDbEntity
  8
CSLAYER1
 62
     4
100
AcDbLine
 10
41.4769915
 20
35.52127449999999
 30
0.0
 11
41.4769915
 21
44.52127449999998
 31
0.0
  0
LINE
  5
203
330
1E
100
AcDbEntity
  8
CSLAYER1
 62
     4
100
AcDbLine
 10
41.4769915
 20
35.52127449999999
 30
0.0
 11
41.088763
 21
36.970163
 31
0.0
  0
LINE
  5
204
330
1E
100
AcDbEntity
  8
CSLAYER1
 62
     4
100
AcDbLine
 10
41.4769915
 20
35.52127449999999
 30
0.0
 11
41.86522
 21
36.970163
 31
0.0
  0
LINE
  5
205
330
1E
100
AcDbEntity
  8
CSLAYER1
 62
     4
100
AcDbLine
 10
41.4769915
 20
44.52127449999998
 30
0.0
 11
41.088763
 21
43.0723855
 31
0.0
  0
LINE
  5
206
330
1E
100
AcDbEntity
  8
CSLAYER1
 62
     4
100
AcDbLine
 10
41.4769915
 20
44.52127449999998
 30
0.0
 11
41.86522
 21
43.0723855
 31
0.0
  0
TEXT
  5
207
330
1E
100
AcDbEntity
  8
CSLAYER1
 62
     4
100
AcDbText
 10
44.733906
 20
35.5442885
 30
0.0
 40
1.5
  1
(7.5)
 50
90.0
 41
1.153846153846152
 51
15.0
  7
FX_FONT
 72
     5
 11
44.733906
 21
43.04428849999999
 31
0.0
100
AcDbText
  0
LINE
  5
208
330
1E
100
AcDbEntity
  8
CSLAYER1
 62
     4
100
AcDbLine
 10
62.90623100000001
 20
43.0672995
 30
0.0
 11
44.7339055
 21
43.0672995
 31
0.0
  0
LINE
  5
209
330
1E
100
AcDbEntity
  8
CSLAYER1
 62
     4
100
AcDbLine
 10
45.2339055
 20
35.52127449999999
 30
0.0
 11
45.2339055
 21
43.0672995
 31
0.0
  0
LINE
  5
20A
330
1E
100
AcDbEntity
  8
CSLAYER1
 62
     4
100
AcDbLine
 10
45.2339055
 20
35.52127449999999
 30
0.0
 11
44.845677
 21
36.970163
 31
0.0
  0
LINE
  5
20B
330
1E
100
AcDbEntity
  8
CSLAYER1
 62
     4
100
AcDbLine
 10
45.2339055
 20
35.52127449999999
 30
0.0
 11
45.6221345
 21
36.970163
 31
0.0
  0
LINE
  5
20C
330
1E
100
AcDbEntity
  8
CSLAYER1
 62
     4
100
AcDbLine
 10
45.2339055
 20
43.0672995
 30
0.0
 11
44.845677
 21
41.618411
 31
0.0
  0
LINE
  5
20D
330
1E
100
AcDbEntity
  8
CSLAYER1
 62
     4
100
AcDbLine
 10
45.2339055
 20
43.0672995
 30
0.0
 11
45.6221345
 21
41.618411
 31
0.0
  0
TEXT
  5
20E
330
1E
100
AcDbEntity
  8
CSLAYER1
 62
     4
100
AcDbText
 10
68.89572149999995
 20
49.22127549999999
 30
0.0
 40
1.5
  1
13
 41
1.200000000000017
 51
15.0
  7
FX_FONT
 72
     5
 11
71.8957215
 21
49.22127549999999
 31
0.0
100
AcDbText
  0
LINE
  5
20F
330
1E
100
AcDbEntity
  8
CSLAYER1
 62
     4
100
AcDbLine
 10
63.89572399999995
 20
45.02127449999998
 30
0.0
 11
63.89572399999995
 21
49.2212745
 31
0.0
  0
LINE
  5
210
330
1E
100
AcDbEntity
  8
CSLAYER1
 62
     4
100
AcDbLine
 10
76.89572399999995
 20
48.845846
 30
0.0
 11
76.89572399999995
 21
49.2212745
 31
0.0
  0
LINE
  5
211
330
1E
100
AcDbEntity
  8
CSLAYER1
 62
     4
100
AcDbLine
 10
63.89572399999995
 20
48.7212745
 30
0.0
 11
76.89572399999995
 21
48.7212745
 31
0.0
  0
LINE
  5
212
330
1E
100
AcDbEntity
  8
CSLAYER1
 62
     4
100
AcDbLine
 10
63.89572399999995
 20
48.7212745
 30
0.0
 11
65.34461249999996
 21
49.10950299999999
 31
0.0
  0
LINE
  5
213
330
1E
100
AcDbEntity
  8
CSLAYER1
 62
     4
100
AcDbLine
 10
63.89572399999995
 20
48.7212745
 30
0.0
 11
65.34461249999996
 21
48.333046
 31
0.0
  0
LINE
  5
214
330
1E
100
AcDbEntity
  8
CSLAYER1
 62
     4
100
AcDbLine
 10
76.89572399999995
 20
48.7212745
 30
0.0
 11
75.44683499999995
 21
49.10950299999999
 31
0.0
  0
LINE
  5
215
330
1E
100
AcDbEntity
  8
CSLAYER1
 62
     4
100
AcDbLine
 10
76.89572399999995
 20
48.7212745
 30
0.0
 11
75.44683499999995
 21
48.333046
 31
0.0
  0
TEXT
  5
216
330
1E
100
AcDbEntity
  8
CSLAYER1
 62
     4
100
AcDbText
 10
51.14572549999995
 20
30.243021
 30
0.0
 40
1.5
  1
切刃部有効13
 41
0.9130434782608734
 51
15.0
  7
FX_FONT
 72
     5
 11
61.64572549999999
 21
30.243021
 31
0.0
100
AcDbText
  0
LINE
  5
217
330
1E
100
AcDbEntity
  8
CSLAYER1
 62
     4
100
AcDbLine
 10
49.895724
 20
29.743021
 30
0.0
 11
62.89572399999995
 21
29.743021
 31
0.0
  0
LINE
  5
218
330
1E
100
AcDbEntity
  8
CSLAYER1
 62
     4
100
AcDbLine
 10
49.895724
 20
29.743021
 30
0.0
 11
51.34461249999995
 21
30.13125
 31
0.0
  0
LINE
  5
219
330
1E
100
AcDbEntity
  8
CSLAYER1
 62
     4
100
AcDbLine
 10
49.895724
 20
29.743021
 30
0.0
 11
51.34461249999995
 21
29.3547925
 31
0.0
  0
LINE
  5
21A
330
1E
100
AcDbEntity
  8
CSLAYER1
 62
     4
100
AcDbLine
 10
62.89572399999995
 20
29.743021
 30
0.0
 11
61.44683499999995
 21
30.13125
 31
0.0
  0
LINE
  5
21B
330
1E
100
AcDbEntity
  8
CSLAYER1
 62
     4
100
AcDbLine
 10
62.89572399999995
 20
29.743021
 30
0.0
 11
61.44683499999995
 21
29.3547925
 31
0.0
  0
LINE
  5
21C
330
1E
100
AcDbEntity
  8
CSLAYER1
 62
     4
100
AcDbLine
 10
49.895724
 20
35.02127449999999
 30
0.0
 11
49.895724
 21
29.243021
 31
0.0
  0
LINE
  5
21D
330
1E
100
AcDbEntity
  8
CSLAYER1
 62
     4
100
AcDbLine
 10
62.89572399999995
 20
35.02127449999999
 30
0.0
 11
62.89572399999995
 21
29.243021
 31
0.0
  0
TEXT
  5
21E
330
1E
100
AcDbEntity
  8
CSLAYER1
 62
     4
100
AcDbText
 10
35.0072405
 20
14.536298
 30
0.0
 40
1.5
  1
5
 50
90.0
 41
1.500000000000001
 51
15.0
  7
FX_FONT
 72
     5
 11
35.0072405
 21
16.036298
 31
0.0
100
AcDbText
  0
LINE
  5
21F
330
1E
100
AcDbEntity
  8
CSLAYER1
 62
     4
100
AcDbLine
 10
35.5072415
 20
12.7862975
 30
0.0
 11
35.5072415
 21
17.7862975
 31
0.0
  0
LINE
  5
220
330
1E
100
AcDbEntity
  8
CSLAYER1
 62
     4
100
AcDbLine
 10
35.5072415
 20
12.7862975
 30
0.0
 11
35.119013
 21
14.23518599999999
 31
0.0
  0
LINE
  5
221
330
1E
100
AcDbEntity
  8
CSLAYER1
 62
     4
100
AcDbLine
 10
35.5072415
 20
12.7862975
 30
0.0
 11
35.89547
 21
14.23518599999999
 31
0.0
  0
LINE
  5
222
330
1E
100
AcDbEntity
  8
CSLAYER1
 62
     4
100
AcDbLine
 10
35.5072415
 20
17.7862975
 30
0.0
 11
35.119013
 21
16.33740849999999
 31
0.0
  0
LINE
  5
223
330
1E
100
AcDbEntity
  8
CSLAYER1
 62
     4
100
AcDbLine
 10
35.5072415
 20
17.7862975
 30
0.0
 11
35.89547
 21
16.33740849999999
 31
0.0
  0
LINE
  5
224
330
1E
100
AcDbEntity
  8
CSLAYER1
 62
     4
100
AcDbLine
 10
39.84066099999999
 20
12.7862975
 30
0.0
 11
35.00724149999999
 21
12.7862975
 31
0.0
  0
LINE
  5
225
330
1E
100
AcDbEntity
  8
CSLAYER1
 62
     4
100
AcDbLine
 10
39.84066099999999
 20
17.7862975
 30
0.0
 11
35.00724149999999
 21
17.7862975
 31
0.0
  0
ENDSEC
  0
SECTION
  2
OBJECTS
  0
DICTIONARY
  5
C
330
0
100
AcDbDictionary
  3
ACAD_GROUP
350
D
  3
ACAD_LAYOUT
350
19
  3
ACAD_MLINESTYLE
350
16
  3
ACAD_PLOTSETTINGS
350
18
1001
ACAD
1000
TREAT_AS_HARD
1070
     0
1000
TREAT_AS_HARD
1070
     0
1000
TREAT_AS_HARD
1070
     0
  0
DICTIONARY
  5
187
330
1E
100
AcDbDictionary
  3
ACAD_LAYOUTSELFREF
350
22A
1001
ACAD
1000
TREAT_AS_HARD
1070
     0
1000
TREAT_AS_HARD
1070
     0
  0
DICTIONARY
  5
185
330
1A
100
AcDbDictionary
  3
ACAD_LAYOUTSELFREF
350
229
1001
ACAD
1000
TREAT_AS_HARD
1070
     0
1000
TREAT_AS_HARD
1070
     0
  0
DICTIONARY
  5
D
102
{ACAD_REACTORS
330
C
102
}
330
C
100
AcDbDictionary
1001
ACAD
1000
TREAT_AS_HARD
1070
     0
1000
TREAT_AS_HARD
1070
     0
1000
TREAT_AS_HARD
1070
     0
  0
DICTIONARY
  5
19
102
{ACAD_REACTORS
330
C
102
}
330
C
100
AcDbDictionary
1001
ACAD
1000
TREAT_AS_HARD
1070
     0
1000
TREAT_AS_HARD
1070
     0
1000
TREAT_AS_HARD
1070
     0
  0
DICTIONARY
  5
16
102
{ACAD_REACTORS
330
C
102
}
330
C
100
AcDbDictionary
  3
STANDARD
350
17
1001
ACAD
1000
TREAT_AS_HARD
1070
     0
1000
TREAT_AS_HARD
1070
     0
1000
TREAT_AS_HARD
1070
     0
  0
DICTIONARY
  5
18
102
{ACAD_REACTORS
330
C
102
}
330
C
100
AcDbDictionary
1001
ACAD
1000
TREAT_AS_HARD
1070
     0
1000
TREAT_AS_HARD
1070
     0
1000
TREAT_AS_HARD
1070
     0
  0
XRECORD
  5
22A
102
{ACAD_REACTORS
330
187
102
}
330
187
100
AcDbXrecord
340
1E
  0
XRECORD
  5
229
102
{ACAD_REACTORS
330
185
102
}
330
185
100
AcDbXrecord
340
1A
  0
MLINESTYLE
  5
17
102
{ACAD_REACTORS
330
16
102
}
330
16
100
AcDbMlineStyle
  2
STANDARD
 70
     0
  3

 62
   256
 51
90.0
 52
90.0
 71
     2
 49
0.5
 62
   256
  6
BYLAYER
 49
-0.5
 62
   256
  6
BYLAYER
  0
ENDSEC
  0
EOF
