  0
SECTION
  2
HEADER
  9
$ACADVER
  1
AC1012
  9
$DWGCODEPAGE
  3
dos932
  9
$INSBASE
 10
0.0
 20
0.0
 30
0.0
  9
$EXTMIN
 10
0.4894416100455601
 20
0.4902653820932415
 30
-0.0000000349181948
  9
$EXTMAX
 10
144.0134587653603
 20
99.50454747945139
 30
0.0000000814935747
  9
$LIMMIN
 10
0.0
 20
0.0
  9
$LIMMAX
 10
297.0
 20
210.0
  9
$ORTHOMODE
 70
     0
  9
$REGENMODE
 70
     1
  9
$FILLMODE
 70
     1
  9
$QTEXTMODE
 70
     0
  9
$MIRRTEXT
 70
     1
  9
$DRAGMODE
 70
     2
  9
$LTSCALE
 40
15.0
  9
$OSMODE
 70
    37
  9
$ATTMODE
 70
     1
  9
$TEXTSIZE
 40
0.2
  9
$TRACEWID
 40
0.05
  9
$TEXTSTYLE
  7
GOTHIC
  9
$CLAYER
  8
CSLAYER1
  9
$CELTYPE
  6
BYLAYER
  9
$CECOLOR
 62
   256
  9
$CELTSCALE
 40
1.0
  9
$DELOBJ
 70
     1
  9
$DISPSILH
 70
     0
  9
$DIMSCALE
 40
1.0
  9
$DIMASZ
 40
0.18
  9
$DIMEXO
 40
0.0625
  9
$DIMDLI
 40
0.38
  9
$DIMRND
 40
0.0
  9
$DIMDLE
 40
0.0
  9
$DIMEXE
 40
0.18
  9
$DIMTP
 40
0.0
  9
$DIMTM
 40
0.0
  9
$DIMTXT
 40
0.18
  9
$DIMCEN
 40
0.09
  9
$DIMTSZ
 40
0.0
  9
$DIMTOL
 70
     0
  9
$DIMLIM
 70
     0
  9
$DIMTIH
 70
     1
  9
$DIMTOH
 70
     1
  9
$DIMSE1
 70
     0
  9
$DIMSE2
 70
     0
  9
$DIMTAD
 70
     0
  9
$DIMZIN
 70
     0
  9
$DIMBLK
  1

  9
$DIMASO
 70
     1
  9
$DIMSHO
 70
     1
  9
$DIMPOST
  1

  9
$DIMAPOST
  1

  9
$DIMALT
 70
     0
  9
$DIMALTD
 70
     2
  9
$DIMALTF
 40
25.4
  9
$DIMLFAC
 40
1.0
  9
$DIMTOFL
 70
     0
  9
$DIMTVP
 40
0.0
  9
$DIMTIX
 70
     0
  9
$DIMSOXD
 70
     0
  9
$DIMSAH
 70
     0
  9
$DIMBLK1
  1

  9
$DIMBLK2
  1

  9
$DIMSTYLE
  2
STANDARD
  9
$DIMCLRD
 70
     0
  9
$DIMCLRE
 70
     0
  9
$DIMCLRT
 70
     0
  9
$DIMTFAC
 40
1.0
  9
$DIMGAP
 40
0.09
  9
$DIMJUST
 70
     0
  9
$DIMSD1
 70
     0
  9
$DIMSD2
 70
     0
  9
$DIMTOLJ
 70
     1
  9
$DIMTZIN
 70
     0
  9
$DIMALTZ
 70
     0
  9
$DIMALTTZ
 70
     0
  9
$DIMFIT
 70
     3
  9
$DIMUPT
 70
     0
  9
$DIMUNIT
 70
     2
  9
$DIMDEC
 70
     4
  9
$DIMTDEC
 70
     4
  9
$DIMALTU
 70
     2
  9
$DIMALTTD
 70
     2
  9
$DIMTXSTY
  7
STANDARD
  9
$DIMAUNIT
 70
     0
  9
$LUNITS
 70
     2
  9
$LUPREC
 70
     4
  9
$SKETCHINC
 40
0.1
  9
$FILLETRAD
 40
0.0
  9
$AUNITS
 70
     0
  9
$AUPREC
 70
     0
  9
$MENU
  1
ACAD
  9
$ELEVATION
 40
0.0
  9
$PELEVATION
 40
0.0
  9
$THICKNESS
 40
0.0
  9
$LIMCHECK
 70
     0
  9
$BLIPMODE
 70
     1
  9
$CHAMFERA
 40
0.0
  9
$CHAMFERB
 40
0.0
  9
$CHAMFERC
 40
0.0
  9
$CHAMFERD
 40
0.0
  9
$SKPOLY
 70
     0
  9
$TDCREATE
 40
2453476.999999999
  9
$TDUPDATE
 40
2453575.546773379
  9
$TDINDWG
 40
0.0008825231
  9
$TDUSRTIMER
 40
0.0008822917
  9
$USRTIMER
 70
     1
  9
$ANGBASE
 50
0.0
  9
$ANGDIR
 70
     0
  9
$PDMODE
 70
     0
  9
$PDSIZE
 40
0.0
  9
$PLINEWID
 40
0.0
  9
$COORDS
 70
     0
  9
$SPLFRAME
 70
     0
  9
$SPLINETYPE
 70
     6
  9
$SPLINESEGS
 70
     8
  9
$ATTDIA
 70
     0
  9
$ATTREQ
 70
     1
  9
$HANDLING
 70
 22529
  9
$HANDSEED
  5
1E6
  9
$SURFTAB1
 70
     6
  9
$SURFTAB2
 70
     6
  9
$SURFTYPE
 70
     6
  9
$SURFU
 70
     6
  9
$SURFV
 70
     6
  9
$UCSNAME
  2

  9
$UCSORG
 10
0.0
 20
0.0
 30
0.0
  9
$UCSXDIR
 10
1.0
 20
0.0
 30
0.0
  9
$UCSYDIR
 10
0.0
 20
1.0
 30
0.0
  9
$PUCSNAME
  2

  9
$PUCSORG
 10
0.0
 20
0.0
 30
0.0
  9
$PUCSXDIR
 10
1.0
 20
0.0
 30
0.0
  9
$PUCSYDIR
 10
0.0
 20
1.0
 30
0.0
  9
$USERI1
 70
     0
  9
$USERI2
 70
     0
  9
$USERI3
 70
     0
  9
$USERI4
 70
     0
  9
$USERI5
 70
     0
  9
$USERR1
 40
0.0
  9
$USERR2
 40
0.0
  9
$USERR3
 40
0.0
  9
$USERR4
 40
0.0
  9
$USERR5
 40
0.0
  9
$WORLDVIEW
 70
     1
  9
$SHADEDGE
 70
     3
  9
$SHADEDIF
 70
    70
  9
$TILEMODE
 70
     1
  9
$MAXACTVP
 70
    64
  9
$PINSBASE
 10
0.0
 20
0.0
 30
0.0
  9
$PLIMCHECK
 70
     0
  9
$PEXTMIN
 10
1.000000000000000E+20
 20
1.000000000000000E+20
 30
1.000000000000000E+20
  9
$PEXTMAX
 10
-1.000000000000000E+20
 20
-1.000000000000000E+20
 30
-1.000000000000000E+20
  9
$PLIMMIN
 10
0.0
 20
0.0
  9
$PLIMMAX
 10
12.0
 20
9.0
  9
$UNITMODE
 70
     0
  9
$VISRETAIN
 70
     1
  9
$PLINEGEN
 70
     0
  9
$PSLTSCALE
 70
     1
  9
$TREEDEPTH
 70
  3020
  9
$PICKSTYLE
 70
     3
  9
$CMLSTYLE
  2
STANDARD
  9
$CMLJUST
 70
     0
  9
$CMLSCALE
 40
1.0
  9
$SAVEIMAGES
 70
     1
  0
ENDSEC
  0
SECTION
  2
CLASSES
  0
CLASS
  1
ACDBDICTIONARYWDFLT
  2
AcDbDictionaryWithDefault
  3
AutoCAD 2000
 90
    32768
280
     0
281
     0
  0
CLASS
  1
ACDBPLACEHOLDER
  2
AcDbPlaceHolder
  3
AutoCAD 2000
 90
    32768
280
     0
281
     0
  0
CLASS
  1
LAYOUT
  2
AcDbLayout
  3
AutoCAD 2000
 90
    32768
280
     0
281
     0
  0
CLASS
  1
DICTIONARYVAR
  2
AcDbDictionaryVar
  3
AutoCAD 2000
 90
    32768
280
     0
281
     0
  0
CLASS
  1
LONG_TRANSACTION
  2
AcDbLongTransaction
  3
AutoCAD 2000
 90
    32768
280
     0
281
     0
  0
CLASS
  1
LWPOLYLINE
  2
AcDbPolyline
  3
AutoCAD 2000
 90
    32768
280
     0
281
     1
  0
CLASS
  1
HATCH
  2
AcDbHatch
  3
AutoCAD 2000
 90
    32768
280
     0
281
     1
  0
CLASS
  1
XRECORD
  2
AcDbXrecord
  3
AutoCAD 2000
 90
    32768
280
     0
281
     0
  0
CLASS
  1
LONG_TRANSACTION
  2
AcDbLongTransaction
  3
AutoCAD 2000
 90
    32768
280
     0
281
     0
  0
CLASS
  1
LWPOLYLINE
  2
AcDbPolyline
  3
AutoCAD 2000
 90
    32768
280
     0
281
     1
  0
CLASS
  1
HATCH
  2
AcDbHatch
  3
AutoCAD 2000
 90
    32768
280
     0
281
     1
  0
CLASS
  1
XRECORD
  2
AcDbXrecord
  3
AutoCAD 2000
 90
    32768
280
     0
281
     0
  0
CLASS
  1
LONG_TRANSACTION
  2
AcDbLongTransaction
  3
AutoCAD 2000
 90
    32768
280
     0
281
     0
  0
CLASS
  1
LWPOLYLINE
  2
AcDbPolyline
  3
AutoCAD 2000
 90
    32768
280
     0
281
     1
  0
CLASS
  1
HATCH
  2
AcDbHatch
  3
AutoCAD 2000
 90
    32768
280
     0
281
     1
  0
CLASS
  1
XRECORD
  2
AcDbXrecord
  3
AutoCAD 2000
 90
    32768
280
     0
281
     0
  0
ENDSEC
  0
SECTION
  2
TABLES
  0
TABLE
  2
VPORT
  5
8
330
0
100
AcDbSymbolTable
 70
     2
  0
VPORT
  5
1E3
330
8
100
AcDbSymbolTableRecord
100
AcDbViewportTableRecord
  2
*ACTIVE
 70
     0
 10
0.0
 20
0.0
 11
1.0
 21
1.0
 12
72.25145018770297
 22
49.99740643077231
 13
0.0
 23
0.0
 14
1.0
 24
1.0
 15
0.0
 25
0.0
 16
0.0
 26
0.0
 36
1.0
 17
0.0
 27
0.0
 37
0.0
 40
99.73264448258687
 41
1.458837772397094
 42
50.0
 43
0.0
 44
0.0
 50
0.0
 51
0.0
 71
     0
 72
   100
 73
     1
 74
     1
 75
     0
 76
     0
 77
     0
 78
     0
  0
ENDTAB
  0
TABLE
  2
LTYPE
  5
5
330
0
100
AcDbSymbolTable
 70
     4
  0
LTYPE
  5
13
330
5
100
AcDbSymbolTableRecord
100
AcDbLinetypeTableRecord
  2
BYBLOCK
 70
     0
  3

 72
    65
 73
     0
 40
0.0
  0
LTYPE
  5
14
330
5
100
AcDbSymbolTableRecord
100
AcDbLinetypeTableRecord
  2
BYLAYER
 70
     0
  3

 72
    65
 73
     0
 40
0.0
  0
LTYPE
  5
15
330
5
100
AcDbSymbolTableRecord
100
AcDbLinetypeTableRecord
  2
CONTINUOUS
 70
     0
  3
Solid line
 72
    65
 73
     0
 40
0.0
  0
LTYPE
  5
23
330
5
100
AcDbSymbolTableRecord
100
AcDbLinetypeTableRecord
  2
DASHED
 70
     0
  3
__ __ __ __ __ __ __ __ __ __ __ __ __ __ __
 72
    65
 73
     2
 40
0.75
 49
0.5
 74
     0
 49
-0.25
 74
     0
  0
LTYPE
  5
25
330
5
100
AcDbSymbolTableRecord
100
AcDbLinetypeTableRecord
  2
DOT
 70
     0
  3
...............................................
 72
    65
 73
     2
 40
0.25
 49
0.0
 74
     0
 49
-0.25
 74
     0
  0
LTYPE
  5
28
330
5
100
AcDbSymbolTableRecord
100
AcDbLinetypeTableRecord
  2
CENTER
 70
     0
  3
____ _ ____ _ ____ _ ____ _ ____ _ ____ _ ____ 
 72
    65
 73
     4
 40
2.0
 49
1.25
 74
     0
 49
-0.25
 74
     0
 49
0.25
 74
     0
 49
-0.25
 74
     0
  0
ENDTAB
  0
TABLE
  2
LAYER
  5
2
330
0
100
AcDbSymbolTable
 70
     3
  0
LAYER
  5
10
330
2
100
AcDbSymbolTableRecord
100
AcDbLayerTableRecord
  2
0
 70
     0
 62
     7
  6
CONTINUOUS
  0
LAYER
  5
22
330
2
100
AcDbSymbolTableRecord
100
AcDbLayerTableRecord
  2
CSLAYER1
 70
     0
 62
     7
  6
CONTINUOUS
  0
LAYER
  5
164
330
2
100
AcDbSymbolTableRecord
100
AcDbLayerTableRecord
  2
DEFPOINTS
 70
     0
 62
     7
  6
CONTINUOUS
  0
ENDTAB
  0
TABLE
  2
STYLE
  5
3
330
0
100
AcDbSymbolTable
 70
     3
  0
STYLE
  5
11
330
3
100
AcDbSymbolTableRecord
100
AcDbTextStyleTableRecord
  2
STANDARD
 70
     0
 40
0.0
 41
1.0
 50
0.0
 71
     0
 42
0.2
  3
txt
  4
extfont.shx
  0
STYLE
  5
3A
330
3
100
AcDbSymbolTableRecord
100
AcDbTextStyleTableRecord
  2
FX_FONT
 70
     0
 40
1.0
 41
1.0
 50
0.0
 71
     0
 42
1.0
  3
monotxt
  4
bigfont
  0
STYLE
  5
15C
330
3
100
AcDbSymbolTableRecord
100
AcDbTextStyleTableRecord
  2
GOTHIC
 70
     0
 40
0.0
 41
1.0
 50
0.0
 71
     0
 42
0.2
  3
txt.shx
  4
extfont.shx
  0
ENDTAB
  0
TABLE
  2
VIEW
  5
6
330
0
100
AcDbSymbolTable
 70
     0
  0
ENDTAB
  0
TABLE
  2
UCS
  5
7
330
0
100
AcDbSymbolTable
 70
     0
  0
ENDTAB
  0
TABLE
  2
APPID
  5
9
330
0
100
AcDbSymbolTable
 70
     1
  0
APPID
  5
12
330
9
100
AcDbSymbolTableRecord
100
AcDbRegAppTableRecord
  2
ACAD
 70
     0
  0
ENDTAB
  0
TABLE
  2
DIMSTYLE
  5
A
330
0
100
AcDbSymbolTable
 70
     1
  0
DIMSTYLE
105
159
330
A
100
AcDbSymbolTableRecord
100
AcDbDimStyleTableRecord
  2
STANDARD
 70
     0
  3

  4

  5

  6

  7

 40
1.0
 41
0.18
 42
0.0625
 43
0.38
 44
0.18
 45
0.0
 46
0.0
 47
0.0
 48
0.0
140
0.18
141
0.09
142
0.0
143
25.4
144
1.0
145
0.0
146
1.0
147
0.09
 71
     0
 72
     0
 73
     1
 74
     1
 75
     0
 76
     0
 77
     0
 78
     0
170
     0
171
     2
172
     0
173
     0
174
     0
175
     0
176
     0
177
     0
178
     0
270
     2
271
     4
272
     4
273
     2
274
     2
340
11
275
     0
280
     0
281
     0
282
     0
283
     1
284
     0
285
     0
286
     0
287
     3
288
     0
  0
ENDTAB
  0
TABLE
  2
BLOCK_RECORD
  5
1
330
0
100
AcDbSymbolTable
 70
    16
  0
BLOCK_RECORD
  5
1E
102
{ACAD_XDICTIONARY
360
162
102
}
330
1
100
AcDbSymbolTableRecord
100
AcDbBlockTableRecord
  2
*MODEL_SPACE
  0
BLOCK_RECORD
  5
1A
102
{ACAD_XDICTIONARY
360
160
102
}
330
1
100
AcDbSymbolTableRecord
100
AcDbBlockTableRecord
  2
*PAPER_SPACE
  0
BLOCK_RECORD
  5
3F
330
1
100
AcDbSymbolTableRecord
100
AcDbBlockTableRecord
  2
FXDIM0000
  0
BLOCK_RECORD
  5
47
330
1
100
AcDbSymbolTableRecord
100
AcDbBlockTableRecord
  2
FXDIM0001
  0
BLOCK_RECORD
  5
51
330
1
100
AcDbSymbolTableRecord
100
AcDbBlockTableRecord
  2
FXDIM0002
  0
BLOCK_RECORD
  5
5B
330
1
100
AcDbSymbolTableRecord
100
AcDbBlockTableRecord
  2
*D3
  0
BLOCK_RECORD
  5
66
330
1
100
AcDbSymbolTableRecord
100
AcDbBlockTableRecord
  2
*D4
  0
BLOCK_RECORD
  5
71
330
1
100
AcDbSymbolTableRecord
100
AcDbBlockTableRecord
  2
*D5
  0
BLOCK_RECORD
  5
7E
330
1
100
AcDbSymbolTableRecord
100
AcDbBlockTableRecord
  2
*D6
  0
BLOCK_RECORD
  5
87
330
1
100
AcDbSymbolTableRecord
100
AcDbBlockTableRecord
  2
*D7
  0
BLOCK_RECORD
  5
92
330
1
100
AcDbSymbolTableRecord
100
AcDbBlockTableRecord
  2
*D8
  0
BLOCK_RECORD
  5
9D
330
1
100
AcDbSymbolTableRecord
100
AcDbBlockTableRecord
  2
*D9
  0
BLOCK_RECORD
  5
A4
330
1
100
AcDbSymbolTableRecord
100
AcDbBlockTableRecord
  2
*D10
  0
BLOCK_RECORD
  5
AF
330
1
100
AcDbSymbolTableRecord
100
AcDbBlockTableRecord
  2
*D11
  0
BLOCK_RECORD
  5
BA
330
1
100
AcDbSymbolTableRecord
100
AcDbBlockTableRecord
  2
*D12
  0
BLOCK_RECORD
  5
C5
330
1
100
AcDbSymbolTableRecord
100
AcDbBlockTableRecord
  2
*D13
  0
BLOCK_RECORD
  5
165
330
1
100
AcDbSymbolTableRecord
100
AcDbBlockTableRecord
  2
*D14
  0
BLOCK_RECORD
  5
172
330
1
100
AcDbSymbolTableRecord
100
AcDbBlockTableRecord
  2
*D15
  0
ENDTAB
  0
ENDSEC
  0
SECTION
  2
BLOCKS
  0
BLOCK
  5
1F
330
1E
100
AcDbEntity
  8
0
100
AcDbBlockBegin
  2
*MODEL_SPACE
 70
     0
 10
0.0
 20
0.0
 30
0.0
  3
*MODEL_SPACE
  1

  0
ENDBLK
  5
20
330
1E
100
AcDbEntity
  8
0
100
AcDbBlockEnd
  0
BLOCK
  5
1B
330
1A
100
AcDbEntity
 67
     1
  8
0
100
AcDbBlockBegin
  2
*PAPER_SPACE
 70
     0
 10
0.0
 20
0.0
 30
0.0
  3
*PAPER_SPACE
  1

  0
ENDBLK
  5
1C
330
1A
100
AcDbEntity
 67
     1
  8
0
100
AcDbBlockEnd
  0
BLOCK
  5
40
330
3F
100
AcDbEntity
  8
0
100
AcDbBlockBegin
  2
FXDIM0000
 70
     0
 10
0.0
 20
0.0
 30
0.0
  3
FXDIM0000
  1

  0
LINE
  5
41
330
3F
100
AcDbEntity
  8
CSLAYER1
  6
CONTINUOUS
 62
     4
100
AcDbLine
 10
145.5446969999998
 20
138.2594139999999
 30
0.0
 11
137.752962
 21
109.1802629999999
 31
0.0
  0
LINE
  5
42
330
3F
100
AcDbEntity
  8
CSLAYER1
  6
CONTINUOUS
 62
     4
100
AcDbLine
 10
145.5446969999998
 20
138.2594139999999
 30
0.0
 11
145.5446969999998
 21
135.2594139999999
 31
0.0
  0
LINE
  5
43
330
3F
100
AcDbEntity
  8
CSLAYER1
  6
CONTINUOUS
 62
     4
100
AcDbLine
 10
145.5446969999998
 20
138.2594139999999
 30
0.0
 11
144.0446969999999
 21
135.661337
 31
0.0
  0
LINE
  5
44
330
3F
100
AcDbEntity
  8
CSLAYER1
  6
CONTINUOUS
 62
     4
100
AcDbLine
 10
137.752962
 20
109.1802629999999
 30
0.0
 11
123.752962
 21
109.1802629999999
 31
0.0
  0
TEXT
  5
45
330
3F
100
AcDbEntity
  8
CSLAYER1
 62
     4
100
AcDbText
 10
124.75296
 20
110.18026
 30
0.0
 40
3.0
  1
%%c4.1
 41
1.142857142857141
 51
15.0
  7
FX_FONT
 72
     5
 11
136.75296
 21
110.18026
 31
0.0
100
AcDbText
  0
ENDBLK
  5
46
330
3F
100
AcDbEntity
  8
0
100
AcDbBlockEnd
  0
BLOCK
  5
48
330
47
100
AcDbEntity
  8
0
100
AcDbBlockBegin
  2
FXDIM0001
 70
     0
 10
0.0
 20
0.0
 30
0.0
  3
FXDIM0001
  1

  0
LINE
  5
49
330
47
100
AcDbEntity
  8
CSLAYER1
  6
CONTINUOUS
 62
     4
100
AcDbLine
 10
156.343421
 20
94.63421099999999
 30
0.0
 11
158.343421
 21
98.09831200000001
 31
0.0
  0
LINE
  5
4A
330
47
100
AcDbEntity
  8
CSLAYER1
  6
CONTINUOUS
 62
     4
100
AcDbLine
 10
154.343421
 20
98.09831200000001
 30
0.0
 11
166.343421
 21
98.09831200000001
 31
0.0
  0
LINE
  5
4B
330
47
100
AcDbEntity
  8
CSLAYER1
  6
CONTINUOUS
 62
     4
100
AcDbLine
 10
154.343421
 20
98.09831200000001
 30
0.0
 11
156.343421
 21
94.63421099999999
 31
0.0
  0
LINE
  5
4C
330
47
100
AcDbEntity
  8
CSLAYER1
  6
CONTINUOUS
 62
     4
100
AcDbLine
 10
160.343421
 20
94.63421099999999
 30
0.0
 11
162.343421
 21
98.09831200000001
 31
0.0
  0
LINE
  5
4D
330
47
100
AcDbEntity
  8
CSLAYER1
  6
CONTINUOUS
 62
     4
100
AcDbLine
 10
158.343421
 20
98.09831200000001
 30
0.0
 11
160.343421
 21
94.63421099999999
 31
0.0
  0
LINE
  5
4E
330
47
100
AcDbEntity
  8
CSLAYER1
  6
CONTINUOUS
 62
     4
100
AcDbLine
 10
164.343421
 20
94.63421099999999
 30
0.0
 11
166.343421
 21
98.09831200000001
 31
0.0
  0
LINE
  5
4F
330
47
100
AcDbEntity
  8
CSLAYER1
  6
CONTINUOUS
 62
     4
100
AcDbLine
 10
162.343421
 20
98.09831200000001
 30
0.0
 11
164.343421
 21
94.63421099999999
 31
0.0
  0
ENDBLK
  5
50
330
47
100
AcDbEntity
  8
0
100
AcDbBlockEnd
  0
BLOCK
  5
52
330
51
100
AcDbEntity
  8
0
100
AcDbBlockBegin
  2
FXDIM0002
 70
     0
 10
0.0
 20
0.0
 30
0.0
  3
FXDIM0002
  1

  0
LINE
  5
53
330
51
100
AcDbEntity
  8
CSLAYER1
  6
CONTINUOUS
 62
     4
100
AcDbLine
 10
158.7434209999998
 20
76.63421099999998
 30
0.0
 11
156.7434209999998
 21
73.17010899999998
 31
0.0
  0
LINE
  5
54
330
51
100
AcDbEntity
  8
CSLAYER1
  6
CONTINUOUS
 62
     4
100
AcDbLine
 10
156.7434209999998
 20
73.17010899999998
 30
0.0
 11
168.7434209999999
 21
73.17010899999998
 31
0.0
  0
LINE
  5
55
330
51
100
AcDbEntity
  8
CSLAYER1
  6
CONTINUOUS
 62
     4
100
AcDbLine
 10
160.7434209999999
 20
73.17010899999998
 30
0.0
 11
158.7434209999998
 21
76.63421099999998
 31
0.0
  0
LINE
  5
56
330
51
100
AcDbEntity
  8
CSLAYER1
  6
CONTINUOUS
 62
     4
100
AcDbLine
 10
162.7434209999998
 20
76.63421099999998
 30
0.0
 11
160.7434209999999
 21
73.17010899999998
 31
0.0
  0
LINE
  5
57
330
51
100
AcDbEntity
  8
CSLAYER1
  6
CONTINUOUS
 62
     4
100
AcDbLine
 10
164.7434209999999
 20
73.17010899999998
 30
0.0
 11
162.7434209999998
 21
76.63421099999998
 31
0.0
  0
LINE
  5
58
330
51
100
AcDbEntity
  8
CSLAYER1
  6
CONTINUOUS
 62
     4
100
AcDbLine
 10
166.7434209999998
 20
76.63421099999998
 30
0.0
 11
164.7434209999999
 21
73.17010899999998
 31
0.0
  0
LINE
  5
59
330
51
100
AcDbEntity
  8
CSLAYER1
  6
CONTINUOUS
 62
     4
100
AcDbLine
 10
168.7434209999999
 20
73.17010899999998
 30
0.0
 11
166.7434209999998
 21
76.63421099999998
 31
0.0
  0
ENDBLK
  5
5A
330
51
100
AcDbEntity
  8
0
100
AcDbBlockEnd
  0
BLOCK
  5
5C
330
5B
100
AcDbEntity
  8
0
100
AcDbBlockBegin
  2
*D3
 70
     1
 10
0.0
 20
0.0
 30
0.0
  3
*D3
  1

  0
TEXT
  5
5D
330
5B
100
AcDbEntity
  8
CSLAYER1
 62
     4
100
AcDbText
 10
126.7434229999997
 20
63.011295
 30
0.0
 40
3.0
  1
17
 41
1.200000000000042
 51
15.0
  7
FX_FONT
 72
     5
 11
132.743423
 21
63.011295
 31
0.0
100
AcDbText
  0
LINE
  5
5E
330
5B
100
AcDbEntity
  8
CSLAYER1
  6
CONTINUOUS
 62
     4
100
AcDbLine
 10
112.743421
 20
62.01129399999999
 30
0.0
 11
146.7434209999999
 21
62.01129399999999
 31
0.0
  0
LINE
  5
5F
330
5B
100
AcDbEntity
  8
CSLAYER1
  6
CONTINUOUS
 62
     4
100
AcDbLine
 10
112.743421
 20
62.01129399999999
 30
0.0
 11
115.641199
 21
62.787752
 31
0.0
  0
LINE
  5
60
330
5B
100
AcDbEntity
  8
CSLAYER1
  6
CONTINUOUS
 62
     4
100
AcDbLine
 10
112.743421
 20
62.01129399999999
 30
0.0
 11
115.641199
 21
61.234837
 31
0.0
  0
LINE
  5
61
330
5B
100
AcDbEntity
  8
CSLAYER1
  6
CONTINUOUS
 62
     4
100
AcDbLine
 10
146.7434209999999
 20
62.01129399999999
 30
0.0
 11
143.8456439999999
 21
62.787752
 31
0.0
  0
LINE
  5
62
330
5B
100
AcDbEntity
  8
CSLAYER1
  6
CONTINUOUS
 62
     4
100
AcDbLine
 10
146.7434209999999
 20
62.01129399999999
 30
0.0
 11
143.8456439999999
 21
61.234837
 31
0.0
  0
LINE
  5
63
330
5B
100
AcDbEntity
  8
CSLAYER1
  6
CONTINUOUS
 62
     4
100
AcDbLine
 10
112.743421
 20
75.63421099999998
 30
0.0
 11
112.743421
 21
61.01129399999999
 31
0.0
  0
LINE
  5
64
330
5B
100
AcDbEntity
  8
CSLAYER1
  6
CONTINUOUS
 62
     4
100
AcDbLine
 10
146.7434209999999
 20
72.14948599999998
 30
0.0
 11
146.7434209999999
 21
61.01129399999999
 31
0.0
  0
ENDBLK
  5
65
330
5B
100
AcDbEntity
  8
0
100
AcDbBlockEnd
  0
BLOCK
  5
67
330
66
100
AcDbEntity
  8
0
100
AcDbBlockBegin
  2
*D4
 70
     1
 10
0.0
 20
0.0
 30
0.0
  3
*D4
  1

  0
TEXT
  5
68
330
66
100
AcDbEntity
  8
CSLAYER1
 62
     4
100
AcDbText
 10
116.743423
 20
181.8029789999999
 30
0.0
 40
3.0
  1
27
 41
1.199999999999982
 51
15.0
  7
FX_FONT
 72
     5
 11
122.7434229999999
 21
181.8029789999999
 31
0.0
100
AcDbText
  0
LINE
  5
69
330
66
100
AcDbEntity
  8
CSLAYER1
  6
CONTINUOUS
 62
     4
100
AcDbLine
 10
92.743421
 20
180.8029669999999
 30
0.0
 11
146.7434209999999
 21
180.8029669999999
 31
0.0
  0
LINE
  5
6A
330
66
100
AcDbEntity
  8
CSLAYER1
  6
CONTINUOUS
 62
     4
100
AcDbLine
 10
92.743421
 20
180.8029669999999
 30
0.0
 11
95.64119899999999
 21
181.5794239999999
 31
0.0
  0
LINE
  5
6B
330
66
100
AcDbEntity
  8
CSLAYER1
  6
CONTINUOUS
 62
     4
100
AcDbLine
 10
92.743421
 20
180.8029669999999
 30
0.0
 11
95.64119899999999
 21
180.02651
 31
0.0
  0
LINE
  5
6C
330
66
100
AcDbEntity
  8
CSLAYER1
  6
CONTINUOUS
 62
     4
100
AcDbLine
 10
146.7434209999999
 20
180.8029669999999
 30
0.0
 11
143.8456439999999
 21
181.5794239999999
 31
0.0
  0
LINE
  5
6D
330
66
100
AcDbEntity
  8
CSLAYER1
  6
CONTINUOUS
 62
     4
100
AcDbLine
 10
146.7434209999999
 20
180.8029669999999
 30
0.0
 11
143.8456439999999
 21
180.02651
 31
0.0
  0
LINE
  5
6E
330
66
100
AcDbEntity
  8
CSLAYER1
  6
CONTINUOUS
 62
     4
100
AcDbLine
 10
92.743421
 20
143.1802629999999
 30
0.0
 11
92.743421
 21
181.8029669999999
 31
0.0
  0
LINE
  5
6F
330
66
100
AcDbEntity
  8
CSLAYER1
  6
CONTINUOUS
 62
     4
100
AcDbLine
 10
146.7434209999999
 20
170.7802629999999
 30
0.0
 11
146.7434209999999
 21
181.8029669999999
 31
0.0
  0
ENDBLK
  5
70
330
66
100
AcDbEntity
  8
0
100
AcDbBlockEnd
  0
BLOCK
  5
72
330
71
100
AcDbEntity
  8
0
100
AcDbBlockBegin
  2
*D5
 70
     1
 10
0.0
 20
0.0
 30
0.0
  3
*D5
  1

  0
TEXT
  5
73
330
71
100
AcDbEntity
  8
CSLAYER1
 62
     4
100
AcDbText
 10
74.55947900000002
 20
84.15371699999999
 30
0.0
 40
3.0
  1
9   
 50
90.0
 41
1.42857142857143
 51
15.0
  7
FX_FONT
 72
     5
 11
74.55947900000002
 21
96.153717
 31
0.0
100
AcDbText
  0
TEXT
  5
74
330
71
100
AcDbEntity
  8
CSLAYER1
 62
     4
100
AcDbText
 10
73.05947900000003
 20
96.153717
 30
0.0
 40
1.5
  1
  0
 50
90.0
 41
1.607142857142857
 51
15.0
  7
FX_FONT
 72
     5
 11
73.05947900000003
 21
100.653717
 31
0.0
100
AcDbText
  0
TEXT
  5
75
330
71
100
AcDbEntity
  8
CSLAYER1
 62
     4
100
AcDbText
 10
74.55947900000002
 20
96.153717
 30
0.0
 40
1.5
  1
-0.15
 50
90.0
 41
1.071428571428571
 51
15.0
  7
FX_FONT
 72
     5
 11
74.55947900000002
 21
103.653717
 31
0.0
100
AcDbText
  0
LINE
  5
76
330
71
100
AcDbEntity
  8
CSLAYER1
  6
CONTINUOUS
 62
     4
100
AcDbLine
 10
75.55947900000003
 20
76.63421099999998
 30
0.0
 11
75.55947900000003
 21
94.63421099999999
 31
0.0
  0
LINE
  5
77
330
71
100
AcDbEntity
  8
CSLAYER1
  6
CONTINUOUS
 62
     4
100
AcDbLine
 10
75.55947900000003
 20
76.63421099999998
 30
0.0
 11
74.783022
 21
79.531988
 31
0.0
  0
LINE
  5
78
330
71
100
AcDbEntity
  8
CSLAYER1
  6
CONTINUOUS
 62
     4
100
AcDbLine
 10
75.55947900000003
 20
76.63421099999998
 30
0.0
 11
76.33593600000001
 21
79.531988
 31
0.0
  0
LINE
  5
79
330
71
100
AcDbEntity
  8
CSLAYER1
  6
CONTINUOUS
 62
     4
100
AcDbLine
 10
75.55947900000003
 20
94.63421099999999
 30
0.0
 11
74.783022
 21
91.736433
 31
0.0
  0
LINE
  5
7A
330
71
100
AcDbEntity
  8
CSLAYER1
  6
CONTINUOUS
 62
     4
100
AcDbLine
 10
75.55947900000003
 20
94.63421099999999
 30
0.0
 11
76.33593600000001
 21
91.736433
 31
0.0
  0
LINE
  5
7B
330
71
100
AcDbEntity
  8
CSLAYER1
  6
CONTINUOUS
 62
     4
100
AcDbLine
 10
111.743421
 20
76.63421099999998
 30
0.0
 11
74.55947900000002
 21
76.63421099999998
 31
0.0
  0
LINE
  5
7C
330
71
100
AcDbEntity
  8
CSLAYER1
  6
CONTINUOUS
 62
     4
100
AcDbLine
 10
119.7434209999999
 20
94.63421099999999
 30
0.0
 11
74.55947900000002
 21
94.63421099999999
 31
0.0
  0
ENDBLK
  5
7D
330
71
100
AcDbEntity
  8
0
100
AcDbBlockEnd
  0
BLOCK
  5
7F
330
7E
100
AcDbEntity
  8
0
100
AcDbBlockBegin
  2
*D6
 70
     1
 10
0.0
 20
0.0
 30
0.0
  3
*D6
  1

  0
TEXT
  5
80
330
7E
100
AcDbEntity
  8
CSLAYER1
 62
     4
100
AcDbText
 10
90.47054499999999
 20
79.952078
 30
0.0
 40
3.0
  1
40%%d
 50
69.99999447390189
 41
1.285714241598515
 51
15.0
  7
FX_FONT
 72
     5
 11
93.54872699999999
 21
88.409311
 31
0.0
100
AcDbText
  0
ARC
  5
81
330
7E
100
AcDbEntity
  8
CSLAYER1
  6
CONTINUOUS
 62
     4
100
AcDbCircle
 10
112.743421
 20
76.63421099999998
 30
0.0
 40
21.06443399999998
100
AcDbArc
 50
140.0
 51
180.0
  0
LINE
  5
82
330
7E
100
AcDbEntity
  8
CSLAYER1
  6
CONTINUOUS
 62
     4
100
AcDbLine
 10
96.607129
 20
90.17416799999999
 30
0.0
 11
95.33927400000001
 21
87.45524399999998
 31
0.0
  0
LINE
  5
83
330
7E
100
AcDbEntity
  8
CSLAYER1
  6
CONTINUOUS
 62
     4
100
AcDbLine
 10
96.607129
 20
90.17416799999999
 30
0.0
 11
94.14967199999999
 21
88.453438
 31
0.0
  0
LINE
  5
84
330
7E
100
AcDbEntity
  8
CSLAYER1
  6
CONTINUOUS
 62
     4
100
AcDbLine
 10
91.678987
 20
76.63421099999998
 30
0.0
 11
90.90253
 21
79.531988
 31
0.0
  0
LINE
  5
85
330
7E
100
AcDbEntity
  8
CSLAYER1
  6
CONTINUOUS
 62
     4
100
AcDbLine
 10
91.678987
 20
76.63421099999998
 30
0.0
 11
92.45544399999999
 21
79.531988
 31
0.0
  0
ENDBLK
  5
86
330
7E
100
AcDbEntity
  8
0
100
AcDbBlockEnd
  0
BLOCK
  5
88
330
87
100
AcDbEntity
  8
0
100
AcDbBlockBegin
  2
*D7
 70
     1
 10
0.0
 20
0.0
 30
0.0
  3
*D7
  1

  0
TEXT
  5
89
330
87
100
AcDbEntity
  8
CSLAYER1
 62
     4
100
AcDbText
 10
79.364653
 20
73.604687
 30
0.0
 40
3.562587
  1
切刃部有効10.5
 50
319.9999996078396
 41
0.4881387268402212
 51
15.0
  7
FX_FONT
 72
     5
 11
92.24238699999999
 21
62.79898499999998
 31
0.0
100
AcDbText
  0
LINE
  5
8A
330
87
100
AcDbEntity
  8
CSLAYER1
  6
CONTINUOUS
 62
     4
100
AcDbLine
 10
76.81758000000002
 20
74.43652400000002
 30
0.0
 11
92.90451299999999
 21
60.937985
 31
0.0
  0
LINE
  5
8B
330
87
100
AcDbEntity
  8
CSLAYER1
  6
CONTINUOUS
 62
     4
100
AcDbLine
 10
76.81758000000002
 20
74.43652400000002
 30
0.0
 11
79.53650299999998
 21
73.16866999999998
 31
0.0
  0
LINE
  5
8C
330
87
100
AcDbEntity
  8
CSLAYER1
  6
CONTINUOUS
 62
     4
100
AcDbLine
 10
76.81758000000002
 20
74.43652400000002
 30
0.0
 11
78.538309
 21
71.979068
 31
0.0
  0
LINE
  5
8D
330
87
100
AcDbEntity
  8
CSLAYER1
  6
CONTINUOUS
 62
     4
100
AcDbLine
 10
92.90451299999999
 20
60.937985
 30
0.0
 11
90.18559000000001
 21
62.20583900000001
 31
0.0
  0
LINE
  5
8E
330
87
100
AcDbEntity
  8
CSLAYER1
  6
CONTINUOUS
 62
     4
100
AcDbLine
 10
92.90451299999999
 20
60.937985
 30
0.0
 11
91.183784
 21
63.39544100000001
 31
0.0
  0
LINE
  5
8F
330
87
100
AcDbEntity
  8
CSLAYER1
  6
CONTINUOUS
 62
     4
100
AcDbLine
 10
92.10063299999999
 20
92.65015899999999
 30
0.0
 11
76.17479200000002
 21
73.67048
 31
0.0
  0
LINE
  5
90
330
87
100
AcDbEntity
  8
CSLAYER1
  6
CONTINUOUS
 62
     4
100
AcDbLine
 10
108.1875669999997
 20
79.151619
 30
0.0
 11
92.261725
 21
60.17193999999999
 31
0.0
  0
ENDBLK
  5
91
330
87
100
AcDbEntity
  8
0
100
AcDbBlockEnd
  0
BLOCK
  5
93
330
92
100
AcDbEntity
  8
0
100
AcDbBlockBegin
  2
*D8
 70
     1
 10
0.0
 20
0.0
 30
0.0
  3
*D8
  1

  0
TEXT
  5
94
330
92
100
AcDbEntity
  8
CSLAYER1
 62
     4
100
AcDbText
 10
49.880702
 20
172.215115
 30
0.0
 40
3.0
  1
35%%d
 50
342.4999940498856
 41
1.285714244419943
 51
15.0
  7
FX_FONT
 72
     5
 11
58.464154
 21
169.508762
 31
0.0
100
AcDbText
  0
ARC
  5
95
330
92
100
AcDbEntity
  8
CSLAYER1
  6
CONTINUOUS
 62
     4
100
AcDbCircle
 10
45.12913499999998
 20
142.180263
 30
0.0
 40
29.073563
100
AcDbArc
 50
55.0
 51
90.0
  0
LINE
  5
96
330
92
100
AcDbEntity
  8
CSLAYER1
  6
CONTINUOUS
 62
     4
100
AcDbLine
 10
61.80504599999999
 20
165.995932
 30
0.0
 11
58.985968
 21
167.0219919999999
 31
0.0
  0
LINE
  5
97
330
92
100
AcDbEntity
  8
CSLAYER1
  6
CONTINUOUS
 62
     4
100
AcDbLine
 10
61.80504599999999
 20
165.995932
 30
0.0
 11
59.87668299999999
 21
168.2940649999999
 31
0.0
  0
LINE
  5
98
330
92
100
AcDbEntity
  8
CSLAYER1
  6
CONTINUOUS
 62
     4
100
AcDbLine
 10
45.12913499999998
 20
171.253826
 30
0.0
 11
48.026913
 21
172.030283
 31
0.0
  0
LINE
  5
99
330
92
100
AcDbEntity
  8
CSLAYER1
  6
CONTINUOUS
 62
     4
100
AcDbLine
 10
45.12913499999998
 20
171.253826
 30
0.0
 11
48.026913
 21
170.4773689999998
 31
0.0
  0
LINE
  5
9A
330
92
100
AcDbEntity
  8
CSLAYER1
  6
CONTINUOUS
 62
     4
100
AcDbLine
 10
59.706863
 20
162.9994149999999
 30
0.0
 11
62.378622
 21
166.815084
 31
0.0
  0
LINE
  5
9B
330
92
100
AcDbEntity
  8
CSLAYER1
  6
CONTINUOUS
 62
     4
100
AcDbLine
 10
45.12913499999998
 20
170.410631
 30
0.0
 11
45.12913499999998
 21
172.253826
 31
0.0
  0
ENDBLK
  5
9C
330
92
100
AcDbEntity
  8
0
100
AcDbBlockEnd
  0
BLOCK
  5
9E
330
9D
100
AcDbEntity
  8
0
100
AcDbBlockBegin
  2
*D9
 70
     1
 10
0.0
 20
0.0
 30
0.0
  3
*D9
  1

  0
TEXT
  5
9F
330
9D
100
AcDbEntity
  8
CSLAYER1
 62
     4
100
AcDbText
 10
59.515776
 20
130.8709039999999
 30
0.0
 40
3.0
  1
R45
 50
9.256010400475233
 41
1.125000064431114
 51
15.0
  7
FX_FONT
 72
     5
 11
68.39859200000001
 21
132.3185189999997
 31
0.0
100
AcDbText
  0
LINE
  5
A0
330
9D
100
AcDbEntity
  8
CSLAYER1
  6
CONTINUOUS
 62
     4
100
AcDbLine
 10
46.30097999999999
 20
127.7041149999997
 30
0.0
 11
81.93507999999999
 21
133.511334
 31
0.0
  0
LINE
  5
A1
330
9D
100
AcDbEntity
  8
CSLAYER1
  6
CONTINUOUS
 62
     4
100
AcDbLine
 10
46.30097999999999
 20
127.7041149999997
 30
0.0
 11
49.036137
 21
128.936559
 31
0.0
  0
LINE
  5
A2
330
9D
100
AcDbEntity
  8
CSLAYER1
  6
CONTINUOUS
 62
     4
100
AcDbLine
 10
46.30097999999999
 20
127.7041149999997
 30
0.0
 11
49.285917
 21
127.4038639999999
 31
0.0
  0
ENDBLK
  5
A3
330
9D
100
AcDbEntity
  8
0
100
AcDbBlockEnd
  0
BLOCK
  5
A5
330
A4
100
AcDbEntity
  8
0
100
AcDbBlockBegin
  2
*D10
 70
     1
 10
0.0
 20
0.0
 30
0.0
  3
*D10
  1

  0
TEXT
  5
A6
330
A4
100
AcDbEntity
  8
CSLAYER1
 62
     4
100
AcDbText
 10
52.502674
 20
26.700001
 30
0.0
 40
3.0
  1
4
 50
90.0
 41
1.5
 51
15.0
  7
FX_FONT
 72
     5
 11
52.502674
 21
29.700001
 31
0.0
100
AcDbText
  0
LINE
  5
A7
330
A4
100
AcDbEntity
  8
CSLAYER1
  6
CONTINUOUS
 62
     4
100
AcDbLine
 10
53.50267399999999
 20
24.19999999999999
 30
0.0
 11
53.50267399999999
 21
32.2
 31
0.0
  0
LINE
  5
A8
330
A4
100
AcDbEntity
  8
CSLAYER1
  6
CONTINUOUS
 62
     4
100
AcDbLine
 10
53.50267399999999
 20
24.19999999999999
 30
0.0
 11
52.726216
 21
27.097777
 31
0.0
  0
LINE
  5
A9
330
A4
100
AcDbEntity
  8
CSLAYER1
  6
CONTINUOUS
 62
     4
100
AcDbLine
 10
53.50267399999999
 20
24.19999999999999
 30
0.0
 11
54.27913100000001
 21
27.097777
 31
0.0
  0
LINE
  5
AA
330
A4
100
AcDbEntity
  8
CSLAYER1
  6
CONTINUOUS
 62
     4
100
AcDbLine
 10
53.50267399999999
 20
32.2
 30
0.0
 11
52.726216
 21
29.302223
 31
0.0
  0
LINE
  5
AB
330
A4
100
AcDbEntity
  8
CSLAYER1
  6
CONTINUOUS
 62
     4
100
AcDbLine
 10
53.50267399999999
 20
32.2
 30
0.0
 11
54.27913100000001
 21
29.302223
 31
0.0
  0
LINE
  5
AC
330
A4
100
AcDbEntity
  8
CSLAYER1
  6
CONTINUOUS
 62
     4
100
AcDbLine
 10
60.806247
 20
24.19999999999999
 30
0.0
 11
52.502674
 21
24.19999999999999
 31
0.0
  0
LINE
  5
AD
330
A4
100
AcDbEntity
  8
CSLAYER1
  6
CONTINUOUS
 62
     4
100
AcDbLine
 10
60.806247
 20
32.2
 30
0.0
 11
52.502674
 21
32.2
 31
0.0
  0
ENDBLK
  5
AE
330
A4
100
AcDbEntity
  8
0
100
AcDbBlockEnd
  0
BLOCK
  5
B0
330
AF
100
AcDbEntity
  8
0
100
AcDbBlockBegin
  2
*D11
 70
     1
 10
0.0
 20
0.0
 30
0.0
  3
*D11
  1

  0
TEXT
  5
B1
330
AF
100
AcDbEntity
  8
CSLAYER1
 62
     4
100
AcDbText
 10
130.743423
 20
103.58223
 30
0.0
 40
3.0
  1
13
 41
1.2
 51
15.0
  7
FX_FONT
 72
     5
 11
136.743423
 21
103.58223
 31
0.0
100
AcDbText
  0
LINE
  5
B2
330
AF
100
AcDbEntity
  8
CSLAYER1
  6
CONTINUOUS
 62
     4
100
AcDbLine
 10
120.7434209999999
 20
102.5822369999999
 30
0.0
 11
146.7434209999999
 21
102.5822369999999
 31
0.0
  0
LINE
  5
B3
330
AF
100
AcDbEntity
  8
CSLAYER1
  6
CONTINUOUS
 62
     4
100
AcDbLine
 10
120.7434209999999
 20
102.5822369999999
 30
0.0
 11
123.641199
 21
103.3586939999999
 31
0.0
  0
LINE
  5
B4
330
AF
100
AcDbEntity
  8
CSLAYER1
  6
CONTINUOUS
 62
     4
100
AcDbLine
 10
120.7434209999999
 20
102.5822369999999
 30
0.0
 11
123.641199
 21
101.80578
 31
0.0
  0
LINE
  5
B5
330
AF
100
AcDbEntity
  8
CSLAYER1
  6
CONTINUOUS
 62
     4
100
AcDbLine
 10
146.7434209999999
 20
102.5822369999999
 30
0.0
 11
143.8456439999999
 21
103.3586939999999
 31
0.0
  0
LINE
  5
B6
330
AF
100
AcDbEntity
  8
CSLAYER1
  6
CONTINUOUS
 62
     4
100
AcDbLine
 10
146.7434209999999
 20
102.5822369999999
 30
0.0
 11
143.8456439999999
 21
101.80578
 31
0.0
  0
LINE
  5
B7
330
AF
100
AcDbEntity
  8
CSLAYER1
  6
CONTINUOUS
 62
     4
100
AcDbLine
 10
120.7434209999999
 20
95.63421099999999
 30
0.0
 11
120.7434209999999
 21
103.5822369999999
 31
0.0
  0
LINE
  5
B8
330
AF
100
AcDbEntity
  8
CSLAYER1
  6
CONTINUOUS
 62
     4
100
AcDbLine
 10
146.7434209999999
 20
98.96517299999999
 30
0.0
 11
146.7434209999999
 21
103.5822369999999
 31
0.0
  0
ENDBLK
  5
B9
330
AF
100
AcDbEntity
  8
0
100
AcDbBlockEnd
  0
BLOCK
  5
BB
330
BA
100
AcDbEntity
  8
0
100
AcDbBlockBegin
  2
*D12
 70
     1
 10
0.0
 20
0.0
 30
0.0
  3
*D12
  1

  0
TEXT
  5
BC
330
BA
100
AcDbEntity
  8
CSLAYER1
 62
     4
100
AcDbText
 10
82.70361300000002
 20
134.6802669999999
 30
0.0
 40
3.0
  1
20~21
 50
90.0
 41
1.111111111111111
 51
15.0
  7
FX_FONT
 72
     5
 11
82.70361300000002
 21
149.6802669999999
 31
0.0
100
AcDbText
  0
LINE
  5
BD
330
BA
100
AcDbEntity
  8
CSLAYER1
  6
CONTINUOUS
 62
     4
100
AcDbLine
 10
83.703614
 20
122.1802629999999
 30
0.0
 11
83.703614
 21
162.1802629999999
 31
0.0
  0
LINE
  5
BE
330
BA
100
AcDbEntity
  8
CSLAYER1
  6
CONTINUOUS
 62
     4
100
AcDbLine
 10
83.703614
 20
122.1802629999999
 30
0.0
 11
82.92715600000002
 21
125.0780409999999
 31
0.0
  0
LINE
  5
BF
330
BA
100
AcDbEntity
  8
CSLAYER1
  6
CONTINUOUS
 62
     4
100
AcDbLine
 10
83.703614
 20
122.1802629999999
 30
0.0
 11
84.48007099999998
 21
125.0780409999999
 31
0.0
  0
LINE
  5
C0
330
BA
100
AcDbEntity
  8
CSLAYER1
  6
CONTINUOUS
 62
     4
100
AcDbLine
 10
83.703614
 20
162.1802629999999
 30
0.0
 11
82.92715600000002
 21
159.282486
 31
0.0
  0
LINE
  5
C1
330
BA
100
AcDbEntity
  8
CSLAYER1
  6
CONTINUOUS
 62
     4
100
AcDbLine
 10
83.703614
 20
162.1802629999999
 30
0.0
 11
84.48007099999998
 21
159.282486
 31
0.0
  0
LINE
  5
C2
330
BA
100
AcDbEntity
  8
CSLAYER1
  6
CONTINUOUS
 62
     4
100
AcDbLine
 10
131.7434209999997
 20
122.1802629999999
 30
0.0
 11
82.703614
 21
122.1802629999999
 31
0.0
  0
LINE
  5
C3
330
BA
100
AcDbEntity
  8
CSLAYER1
  6
CONTINUOUS
 62
     4
100
AcDbLine
 10
131.7434209999997
 20
162.1802629999999
 30
0.0
 11
82.703614
 21
162.1802629999999
 31
0.0
  0
ENDBLK
  5
C4
330
BA
100
AcDbEntity
  8
0
100
AcDbBlockEnd
  0
BLOCK
  5
C6
330
C5
100
AcDbEntity
  8
0
100
AcDbBlockBegin
  2
*D13
 70
     1
 10
0.0
 20
0.0
 30
0.0
  3
*D13
  1

  0
TEXT
  5
C7
330
C5
100
AcDbEntity
  8
CSLAYER1
 62
     4
100
AcDbText
 10
115.895553
 20
127.640878
 30
0.0
 40
3.0
  1
R25
 50
70.48322084600854
 41
1.124999966374752
 51
15.0
  7
FX_FONT
 72
     5
 11
118.9022989999999
 21
136.123771
 31
0.0
100
AcDbText
  0
LINE
  5
C8
330
C5
100
AcDbEntity
  8
CSLAYER1
  6
CONTINUOUS
 62
     4
100
AcDbLine
 10
116.039279
 20
125.053077
 30
0.0
 11
124.0279159999999
 21
147.5913189999999
 31
0.0
  0
LINE
  5
C9
330
C5
100
AcDbEntity
  8
CSLAYER1
  6
CONTINUOUS
 62
     4
100
AcDbLine
 10
116.039279
 20
125.053077
 30
0.0
 11
116.275532
 21
128.04376
 31
0.0
  0
LINE
  5
CA
330
C5
100
AcDbEntity
  8
CSLAYER1
  6
CONTINUOUS
 62
     4
100
AcDbLine
 10
116.039279
 20
125.053077
 30
0.0
 11
117.7392219999999
 21
127.524958
 31
0.0
  0
ENDBLK
  5
CB
330
C5
100
AcDbEntity
  8
0
100
AcDbBlockEnd
  0
BLOCK
  5
170
330
165
100
AcDbEntity
  8
0
100
AcDbBlockBegin
  2
*D14
 70
     1
 10
0.0
 20
0.0
 30
0.0
  3
*D14
  1

  0
ARC
  5
166
330
165
100
AcDbEntity
  8
CSLAYER1
 62
     0
100
AcDbCircle
 10
112.743421
 20
76.63421099999998
 30
0.0
 40
21.06443356903405
100
AcDbArc
 50
140.489606983169
 51
159.4781020089143
  0
ARC
  5
167
330
165
100
AcDbEntity
  8
CSLAYER1
 62
     0
100
AcDbCircle
 10
112.743421
 20
76.63421099999998
 30
0.0
 40
21.06443356903405
100
AcDbArc
 50
160.5201744123638
 51
179.5103940650902
  0
SOLID
  5
168
330
165
100
AcDbEntity
  8
CSLAYER1
 62
     0
100
AcDbTrace
 10
96.46895338386816
 20
90.05497177850214
 30
0.0
 11
96.5150804142733
 21
90.01660125510197
 31
0.0
 12
96.60712846927125
 22
90.17416760801749
 32
0.0
 13
96.60712846927125
 23
90.17416760801749
 33
0.0
  0
SOLID
  5
169
330
165
100
AcDbEntity
  8
CSLAYER1
 62
     0
100
AcDbTrace
 10
91.70975622600158
 20
76.81408117888479
 30
0.0
 11
91.6497567736587
 21
76.81433753517286
 31
0.0
 12
91.67898743096596
 22
76.63421099999998
 32
0.0
 13
91.67898743096596
 23
76.63421099999998
 33
0.0
  0
MTEXT
  5
16A
330
165
100
AcDbEntity
  8
CSLAYER1
 62
     0
100
AcDbMText
 10
92.94932814823885
 20
83.83867140728282
 30
0.0
 40
0.18
 41
0.0
 71
     5
 72
     1
  1
\A1;40°
1001
ACAD
1000
MTEXTBEGIN
1070
    73
1070
     1
1070
    44
1040
1.0
1070
    74
1070
     0
1000
MTEXTEND
1000
MTEXTBEGIN
1070
    73
1070
     1
1070
    44
1040
1.0
1070
    74
1070
     0
1000
MTEXTEND
  0
POINT
  5
16B
330
165
100
AcDbEntity
  8
DEFPOINTS
 62
     0
100
AcDbPoint
 10
93.9195554974797
 20
86.08791128757394
 30
0.0
  0
POINT
  5
16C
330
165
100
AcDbEntity
  8
DEFPOINTS
 62
     0
100
AcDbPoint
 10
112.743421
 20
76.63421099999998
 30
0.0
  0
POINT
  5
16D
330
165
100
AcDbEntity
  8
DEFPOINTS
 62
     0
100
AcDbPoint
 10
79.86004500000001
 20
76.63421099999998
 30
0.0
  0
POINT
  5
16E
330
165
100
AcDbEntity
  8
DEFPOINTS
 62
     0
100
AcDbPoint
 10
111.743421
 20
76.63421099999998
 30
0.0
  0
POINT
  5
16F
330
165
100
AcDbEntity
  8
DEFPOINTS
 62
     0
100
AcDbPoint
 10
92.743421
 20
93.416203
 30
0.0
  0
ENDBLK
  5
171
330
165
100
AcDbEntity
  8
0
100
AcDbBlockEnd
  0
BLOCK
  5
17F
330
172
100
AcDbEntity
  8
0
100
AcDbBlockBegin
  2
*D15
 70
     1
 10
0.0
 20
0.0
 30
0.0
  3
*D15
  1

  0
LINE
  5
173
330
172
100
AcDbEntity
  8
CSLAYER1
 62
     0
100
AcDbLine
 10
59.16913452767698
 20
162.2314600024844
 30
0.0
 11
61.90828968569603
 21
166.1433789156966
 31
0.0
  0
LINE
  5
174
330
172
100
AcDbEntity
  8
CSLAYER1
 62
     0
100
AcDbLine
 10
45.12913499999998
 20
169.4731309999999
 30
0.0
 11
45.12913499999998
 21
171.4338261394813
 31
0.0
  0
ARC
  5
175
330
172
100
AcDbEntity
  8
CSLAYER1
 62
     0
100
AcDbCircle
 10
45.12913499999998
 20
142.180263
 30
0.0
 40
29.07356313948156
100
AcDbArc
 50
55.35472926230824
 51
71.7172073525733
  0
ARC
  5
176
330
172
100
AcDbEntity
  8
CSLAYER1
 62
     0
100
AcDbCircle
 10
45.12913499999998
 20
142.180263
 30
0.0
 40
29.07356313948156
100
AcDbArc
 50
73.27943432637455
 51
89.64527028440176
  0
SOLID
  5
177
330
172
100
AcDbEntity
  8
CSLAYER1
 62
     0
100
AcDbTrace
 10
61.67441080228662
 20
166.1233460863931
 30
0.0
 11
61.6401485264266
 21
166.0740906658499
 31
0.0
 12
61.80504592598635
 22
165.9959315485415
 32
0.0
 13
61.80504592598635
 23
165.9959315485415
 33
0.0
  0
SOLID
  5
178
330
172
100
AcDbEntity
  8
CSLAYER1
 62
     0
100
AcDbTrace
 10
45.30904126967963
 20
171.223269075978
 30
0.0
 11
45.30922700542776
 21
171.283268788496
 31
0.0
 12
45.12913499999997
 22
171.2538261394815
 32
0.0
 13
45.12913499999997
 23
171.2538261394815
 33
0.0
  0
MTEXT
  5
179
330
172
100
AcDbEntity
  8
CSLAYER1
 62
     0
100
AcDbMText
 10
53.87172415797923
 20
169.9082129501891
 30
0.0
 40
0.18
 41
0.0
 71
     5
 72
     1
  1
\A1;35°
1001
ACAD
1000
MTEXTBEGIN
1070
    73
1070
     1
1070
    44
1040
1.0
1070
    74
1070
     0
1000
MTEXTEND
1000
MTEXTBEGIN
1070
    73
1070
     1
1070
    44
1040
1.0
1070
    74
1070
     0
1000
MTEXTEND
  0
POINT
  5
17A
330
172
100
AcDbEntity
  8
DEFPOINTS
 62
     0
100
AcDbPoint
 10
56.64458522701139
 20
168.876076898337
 30
0.0
  0
POINT
  5
17B
330
172
100
AcDbEntity
  8
DEFPOINTS
 62
     0
100
AcDbPoint
 10
45.12913499999998
 20
142.180263
 30
0.0
  0
POINT
  5
17C
330
172
100
AcDbEntity
  8
DEFPOINTS
 62
     0
100
AcDbPoint
 10
45.12913499999998
 20
169.4106309999999
 30
0.0
  0
POINT
  5
17D
330
172
100
AcDbEntity
  8
DEFPOINTS
 62
     0
100
AcDbPoint
 10
45.12913499999998
 20
142.180263
 30
0.0
  0
POINT
  5
17E
330
172
100
AcDbEntity
  8
DEFPOINTS
 62
     0
100
AcDbPoint
 10
59.13328599999999
 20
162.1802629999999
 30
0.0
  0
ENDBLK
  5
180
330
172
100
AcDbEntity
  8
0
100
AcDbBlockEnd
  0
ENDSEC
  0
SECTION
  2
ENTITIES
  0
POINT
  5
CC
330
1E
100
AcDbEntity
  8
CSLAYER1
 62
     3
100
AcDbPoint
 10
135.4999999999999
 20
26.75
 30
0.0
  0
POINT
  5
CD
330
1E
100
AcDbEntity
  8
CSLAYER1
 62
     3
100
AcDbPoint
 10
125.2499999999999
 20
26.75
 30
0.0
  0
POINT
  5
CF
330
1E
100
AcDbEntity
  8
CSLAYER1
 62
     3
100
AcDbPoint
 10
124.5615149999999
 20
21.75
 30
0.0
  0
POINT
  5
D0
330
1E
100
AcDbEntity
  8
CSLAYER1
 62
     3
100
AcDbPoint
 10
135.4999999999999
 20
21.75
 30
0.0
  0
TEXT
  5
D1
330
1E
100
AcDbEntity
  8
CSLAYER1
 62
     3
100
AcDbText
 10
119.0499999999999
 20
25.5
 30
0.0
 40
2.5
  1
刃開キハ
 41
1.110447761194031
  7
FX_FONT
 72
     5
 11
131.45
 21
25.5
 31
0.0
100
AcDbText
  0
TEXT
  5
D2
330
1E
100
AcDbEntity
  8
CSLAYER1
 62
     3
100
AcDbText
 10
118.311516
 20
20.5
 30
0.0
 40
2.5
  1
切刃部有効
 41
0.8720930232558108
  7
FX_FONT
 72
     5
 11
130.8115159999999
 21
20.5
 31
0.0
100
AcDbText
  0
TEXT
  5
D3
330
1E
100
AcDbEntity
  8
CSLAYER1
 62
     3
100
AcDbText
 10
134.25
 20
25.5
 30
0.0
 40
2.5
  1
4
 41
1.499999999999982
  7
FX_FONT
 72
     5
 11
136.7499999999999
 21
25.5
 31
0.0
100
AcDbText
  0
TEXT
  5
D4
330
1E
100
AcDbEntity
  8
CSLAYER1
 62
     3
100
AcDbText
 10
130.4999999999999
 20
20.5
 30
0.0
 40
2.5
  1
10.5
 41
1.09090909090909
  7
FX_FONT
 72
     5
 11
140.5
 21
20.5
 31
0.0
100
AcDbText
  0
TEXT
  5
D5
330
1E
100
AcDbEntity
  8
CSLAYER1
 62
     3
100
AcDbText
 10
122.7
 20
8.625
 30
0.0
 40
1.75
  1
N7PF
 41
1.184415584415585
  7
FX_FONT
 72
     5
 11
130.3
 21
8.625
 31
0.0
100
AcDbText
  0
INSERT
  5
D6
330
1E
100
AcDbEntity
  8
CSLAYER1
100
AcDbBlockReference
  2
FXDIM0001
 10
0.0
 20
0.0
 30
0.0
 41
0.5
 42
0.5
 43
0.5
  0
INSERT
  5
D7
330
1E
100
AcDbEntity
  8
CSLAYER1
100
AcDbBlockReference
  2
FXDIM0002
 10
0.0
 20
0.0
 30
0.0
 41
0.5
 42
0.5
 43
0.5
  0
POINT
  5
D8
330
1E
100
AcDbEntity
  8
CSLAYER1
 62
     3
100
AcDbPoint
 10
126.5
 20
9.5
 30
0.0
  0
LINE
  5
D9
330
1E
100
AcDbEntity
  8
CSLAYER1
  6
CONTINUOUS
 62
     3
100
AcDbLine
 10
118.3115149999999
 20
20.0
 30
0.0
 11
140.5036364999999
 21
20.0
 31
0.0
  0
LINE
  5
DA
330
1E
100
AcDbEntity
  8
CSLAYER1
  6
CONTINUOUS
 62
     3
100
AcDbLine
 10
46.3717105
 20
46.7081015
 30
0.0
 11
46.3717105
 21
47.31710549999999
 31
0.0
  0
LINE
  5
DB
330
1E
100
AcDbEntity
  8
CSLAYER1
  6
CONTINUOUS
 62
     3
100
AcDbLine
 10
60.37171049999995
 20
47.31710549999999
 30
0.0
 11
90.37171049999995
 21
47.31710549999999
 31
0.0
  0
LINE
  5
DC
330
1E
100
AcDbEntity
  8
CSLAYER1
  6
CONTINUOUS
 62
     3
100
AcDbLine
 10
90.37171049999995
 20
47.31710549999999
 30
0.0
 11
123.8729879999999
 21
46.4116655
 31
0.0
  0
ARC
  5
DD
330
1E
100
AcDbEntity
  8
CSLAYER1
  6
CONTINUOUS
 62
     3
100
AcDbCircle
 10
123.775838
 20
42.81710549999998
 30
0.0
 40
3.5958725
100
AcDbArc
 50
271.548158
 51
88.451842
  0
LINE
  5
DE
330
1E
100
AcDbEntity
  8
CSLAYER1
  6
CONTINUOUS
 62
     3
100
AcDbLine
 10
123.8729879999999
 20
39.22254500000001
 30
0.0
 11
90.37171049999995
 21
38.31710549999998
 31
0.0
  0
LINE
  5
DF
330
1E
100
AcDbEntity
  8
CSLAYER1
  6
CONTINUOUS
 62
     3
100
AcDbLine
 10
90.37171049999995
 20
38.31710549999998
 30
0.0
 11
56.3717105
 21
38.31710549999998
 31
0.0
  0
LINE
  5
E0
330
1E
100
AcDbEntity
  8
CSLAYER1
  6
CONTINUOUS
 62
     3
100
AcDbLine
 10
56.3717105
 20
38.31710549999998
 30
0.0
 11
46.3717105
 21
46.7081015
 31
0.0
  0
LINE
  5
E1
330
1E
100
AcDbEntity
  8
CSLAYER1
  6
CONTINUOUS
 62
     3
100
AcDbLine
 10
64.379249
 20
42.06710549999999
 30
0.0
 11
64.379249
 21
38.31710549999998
 31
0.0
  0
LINE
  5
E2
330
1E
100
AcDbEntity
  8
CSLAYER1
  6
CONTINUOUS
 62
     3
100
AcDbLine
 10
65.129249
 20
42.81710549999998
 30
0.0
 11
81.61123299999999
 21
42.81710549999998
 31
0.0
  0
ARC
  5
E3
330
1E
100
AcDbEntity
  8
CSLAYER1
  6
CONTINUOUS
 62
     3
100
AcDbCircle
 10
81.61123299999999
 20
43.56710549999998
 30
0.0
 40
0.75
100
AcDbArc
 50
270.0
 51
0.0
  0
LINE
  5
E4
330
1E
100
AcDbEntity
  8
CSLAYER1
  6
CONTINUOUS
 62
     3
100
AcDbLine
 10
82.361233
 20
43.56710549999998
 30
0.0
 11
82.361233
 21
47.31710549999999
 31
0.0
  0
LINE
  5
E5
330
1E
100
AcDbEntity
  8
CSLAYER1
  6
CONTINUOUS
 62
     3
100
AcDbLine
 10
76.57327249999996
 20
47.31710549999999
 30
0.0
 11
76.57327249999996
 21
43.31710549999999
 31
0.0
  0
LINE
  5
E6
330
1E
100
AcDbEntity
  8
CSLAYER1
  6
CONTINUOUS
 62
     3
100
AcDbLine
 10
76.57327249999996
 20
43.31710549999999
 30
0.0
 11
76.07327249999996
 21
42.81710549999998
 31
0.0
  0
LINE
  5
E7
330
1E
100
AcDbEntity
  8
CSLAYER1
  6
CONTINUOUS
 62
     3
100
AcDbLine
 10
70.67014849999996
 20
42.81710549999998
 30
0.0
 11
70.17014849999995
 21
42.31710549999998
 31
0.0
  0
LINE
  5
E8
330
1E
100
AcDbEntity
  8
CSLAYER1
  6
CONTINUOUS
 62
     3
100
AcDbLine
 10
70.17014849999995
 20
42.31710549999998
 30
0.0
 11
70.17014849999995
 21
38.31710549999998
 31
0.0
  0
ARC
  5
E9
330
1E
100
AcDbEntity
  8
CSLAYER1
  6
CONTINUOUS
 62
     3
100
AcDbCircle
 10
65.129249
 20
42.06710549999999
 30
0.0
 40
0.75
100
AcDbArc
 50
90.0
 51
180.0
  0
LINE
  5
EA
330
1E
100
AcDbEntity
  8
CSLAYER1
  6
CONTINUOUS
 62
     3
100
AcDbLine
 10
66.37171049999989
 20
61.09013149999995
 30
0.0
 11
81.3717104999999
 21
61.09013149999995
 31
0.0
  0
LINE
  5
EB
330
1E
100
AcDbEntity
  8
CSLAYER1
  6
CONTINUOUS
 62
     3
100
AcDbLine
 10
81.3717104999999
 20
61.09013149999995
 30
0.0
 11
121.804309
 21
63.94678249999995
 31
0.0
  0
ARC
  5
EC
330
1E
100
AcDbEntity
  8
CSLAYER1
  6
CONTINUOUS
 62
     3
100
AcDbCircle
 10
121.38145
 20
69.93186300000001
 30
0.0
 40
6.0
100
AcDbArc
 50
274.0413559999999
 51
356.734936
  0
LINE
  5
ED
330
1E
100
AcDbEntity
  8
CSLAYER1
  6
CONTINUOUS
 62
     3
100
AcDbLine
 10
127.3717105
 20
69.59013149999996
 30
0.0
 11
84.5966825
 21
69.59013149999996
 31
0.0
  0
LINE
  5
EE
330
1E
100
AcDbEntity
  8
CSLAYER1
  6
CONTINUOUS
 62
     3
100
AcDbLine
 10
84.93856949999999
 20
69.59013149999996
 30
0.0
 11
82.361233
 21
61.1600435
 31
0.0
  0
ARC
  5
EF
330
1E
100
AcDbEntity
  8
CSLAYER1
  6
CONTINUOUS
 62
     3
100
AcDbCircle
 10
73.37171049999994
 20
71.0901315
 30
0.0
 40
10.5
100
AcDbArc
 50
287.75279
 51
3.822554
  0
LINE
  5
F0
330
1E
100
AcDbEntity
  8
CSLAYER1
  6
CONTINUOUS
 62
     3
100
AcDbLine
 10
84.5966825
 20
72.59013149999995
 30
0.0
 11
127.3717105
 21
72.59013149999995
 31
0.0
  0
ARC
  5
F1
330
1E
100
AcDbEntity
  8
CSLAYER1
  6
CONTINUOUS
 62
     3
100
AcDbCircle
 10
121.38145
 20
72.2484
 30
0.0
 40
6.0
100
AcDbArc
 50
3.265063999999999
 51
85.95864399999998
  0
LINE
  5
F2
330
1E
100
AcDbEntity
  8
CSLAYER1
  6
CONTINUOUS
 62
     3
100
AcDbLine
 10
121.804309
 20
78.23348049999996
 30
0.0
 11
81.3717104999999
 21
81.09013149999995
 31
0.0
  0
LINE
  5
F3
330
1E
100
AcDbEntity
  8
CSLAYER1
  6
CONTINUOUS
 62
     3
100
AcDbLine
 10
81.3717104999999
 20
81.09013149999995
 30
0.0
 11
66.37171049999989
 21
81.09013149999995
 31
0.0
  0
ARC
  5
F4
330
1E
100
AcDbEntity
  8
CSLAYER1
  6
CONTINUOUS
 62
     3
100
AcDbCircle
 10
66.37171049999989
 20
56.09013149999995
 30
0.0
 40
25.0
100
AcDbArc
 50
90.0
 51
143.130102
  0
LINE
  5
F5
330
1E
100
AcDbEntity
  8
CSLAYER1
  6
CONTINUOUS
 62
     3
100
AcDbLine
 10
46.3717105
 20
71.0901315
 30
0.0
 11
54.415177
 21
71.0901315
 31
0.0
  0
LINE
  5
F6
330
1E
100
AcDbEntity
  8
CSLAYER1
  6
CONTINUOUS
 62
     3
100
AcDbLine
 10
61.368103
 20
71.16159199999995
 30
0.0
 11
64.379249
 21
81.01060699999996
 31
0.0
  0
LINE
  5
F7
330
1E
100
AcDbEntity
  8
CSLAYER1
  6
CONTINUOUS
 62
     3
100
AcDbLine
 10
60.37171049999995
 20
80.35945399999995
 30
0.0
 11
60.37171049999995
 21
71.2862745
 31
0.0
  0
LINE
  5
F8
330
1E
100
AcDbEntity
  8
CSLAYER1
  6
CONTINUOUS
 62
     3
100
AcDbLine
 10
60.37171049999995
 20
70.8862745
 30
0.0
 11
60.37171049999995
 21
61.82080949999996
 31
0.0
  0
ARC
  5
F9
330
1E
100
AcDbEntity
  8
CSLAYER1
  6
CONTINUOUS
 62
     3
100
AcDbCircle
 10
66.37171049999989
 20
86.0901315
 30
0.0
 40
25.0
100
AcDbArc
 50
216.869898
 51
270.0
  0
CIRCLE
  5
FA
330
1E
100
AcDbEntity
  8
CSLAYER1
  6
CONTINUOUS
 62
     3
100
AcDbCircle
 10
73.37171049999994
 20
71.0901315
 30
0.0
 40
2.049999999999998
  0
CIRCLE
  5
FB
330
1E
100
AcDbEntity
  8
CSLAYER1
  6
CONTINUOUS
 62
     3
100
AcDbCircle
 10
73.37171049999994
 20
71.0901315
 30
0.0
 40
6.4
  0
ARC
  5
FC
330
1E
100
AcDbEntity
  8
CSLAYER1
  6
CONTINUOUS
 62
     3
100
AcDbCircle
 10
84.5966825
 20
70.34013149999999
 30
0.0
 40
0.75
100
AcDbArc
 50
176.1774459999999
 51
270.0
  0
ARC
  5
FD
330
1E
100
AcDbEntity
  8
CSLAYER1
  6
CONTINUOUS
 62
     3
100
AcDbCircle
 10
84.5966825
 20
71.8401315
 30
0.0
 40
0.75
100
AcDbArc
 50
90.0
 51
183.8225539999998
  0
ARC
  5
FE
330
1E
100
AcDbEntity
  8
CSLAYER1
  6
CONTINUOUS
 62
     3
100
AcDbCircle
 10
73.37171049999994
 20
71.0901315
 30
0.0
 40
10.5
100
AcDbArc
 50
107.7527899999999
 51
169.809411
  0
LINE
  5
FF
330
1E
100
AcDbEntity
  8
CSLAYER1
  6
CONTINUOUS
 62
     3
100
AcDbLine
 10
117.8717105
 20
72.59013149999995
 30
0.0
 11
117.8717105
 21
69.59013149999996
 31
0.0
  0
LINE
  5
100
330
1E
100
AcDbEntity
  8
CSLAYER1
  6
CONTINUOUS
 62
     3
100
AcDbLine
 10
122.8717104999999
 20
69.59013149999996
 30
0.0
 11
122.8717104999999
 21
72.59013149999995
 31
0.0
  0
LINE
  5
101
330
1E
100
AcDbEntity
  8
CSLAYER1
  6
CONTINUOUS
 62
     3
100
AcDbLine
 10
139.5
 20
25.0
 30
0.0
 11
119.0
 21
25.0
 31
0.0
  0
LINE
  5
102
330
1E
100
AcDbEntity
  8
CSLAYER1
  6
CONTINUOUS
 62
     3
100
AcDbLine
 10
29.56664299999999
 20
61.09013149999995
 30
0.0
 11
22.56456749999999
 21
71.0901315
 31
0.0
  0
LINE
  5
103
330
1E
100
AcDbEntity
  8
CSLAYER1
  6
CONTINUOUS
 62
     3
100
AcDbLine
 10
22.56456749999999
 20
71.0901315
 30
0.0
 11
29.56664299999999
 21
81.09013149999995
 31
0.0
  0
LINE
  5
104
330
1E
100
AcDbEntity
  8
CSLAYER1
  6
CONTINUOUS
 62
     3
100
AcDbLine
 10
29.56664299999999
 20
81.09013149999995
 30
0.0
 11
23.68974549999999
 21
81.09013149999995
 31
0.0
  0
ARC
  5
105
330
1E
100
AcDbEntity
  8
CSLAYER1
  6
CONTINUOUS
 62
     3
100
AcDbCircle
 10
67.56456750000001
 20
71.0901315
 30
0.0
 40
45.0
100
AcDbArc
 50
167.160412
 51
192.839588
  0
LINE
  5
106
330
1E
100
AcDbEntity
  8
CSLAYER1
  6
CONTINUOUS
 62
     3
100
AcDbLine
 10
23.68974549999999
 20
61.09013149999995
 30
0.0
 11
29.56664299999999
 21
61.09013149999995
 31
0.0
  0
LINE
  5
107
330
1E
100
AcDbEntity
  8
CSLAYER1
  6
CENTER
 62
     4
100
AcDbLine
 10
31.126256
 20
71.0901315
 30
0.0
 11
18.78959349999999
 21
71.0901315
 31
0.0
  0
LINE
  5
109
330
1E
100
AcDbEntity
  8
CSLAYER1
  6
CENTER
 62
     4
100
AcDbLine
 10
44.57171049999998
 20
71.0901315
 30
0.0
 11
46.3717105
 21
71.0901315
 31
0.0
  0
LINE
  5
10A
330
1E
100
AcDbEntity
  8
CSLAYER1
  6
CENTER
 62
     4
100
AcDbLine
 10
73.37171049999994
 20
56.69013149999995
 30
0.0
 11
73.37171049999994
 21
84.89013149999996
 31
0.0
  0
LINE
  5
10B
330
1E
100
AcDbEntity
  8
CSLAYER1
  6
CENTER
 62
     4
100
AcDbLine
 10
120.3717104999999
 20
75.0901315
 30
0.0
 11
120.3717104999999
 21
66.72649499999995
 31
0.0
  0
LINE
  5
10C
330
1E
100
AcDbEntity
  8
CSLAYER1
  6
CENTER
 62
     4
100
AcDbLine
 10
131.8445724999999
 20
42.81710549999998
 30
0.0
 11
122.5189145
 21
42.81710549999998
 31
0.0
  0
LINE
  5
10D
330
1E
100
AcDbEntity
  8
CSLAYER1
  6
CENTER
 62
     4
100
AcDbLine
 10
89.37171049999996
 20
42.81710549999998
 30
0.0
 11
82.361233
 21
42.81710549999998
 31
0.0
  0
LINE
  5
10E
330
1E
100
AcDbEntity
  8
CSLAYER1
  6
CENTER
 62
     4
100
AcDbLine
 10
73.37171049999994
 20
36.574743
 30
0.0
 11
73.37171049999994
 21
48.98258649999999
 31
0.0
  0
ARC
  5
10F
330
1E
100
AcDbEntity
  8
CSLAYER1
  6
DASHED
 62
     4
100
AcDbCircle
 10
55.295776
 20
40.525329
 30
0.0
 40
1.0
100
AcDbArc
 50
230.0
 51
330.0
  0
LINE
  5
110
330
1E
100
AcDbEntity
  8
CSLAYER1
  6
CENTER
 62
     4
100
AcDbLine
 10
89.37171049999996
 20
66.19844049999989
 30
0.0
 11
89.37171049999996
 21
75.84636249999995
 31
0.0
  0
LINE
  5
111
330
1E
100
AcDbEntity
  8
CSLAYER1
  6
CONTINUOUS
 62
     3
100
AcDbLine
 10
47.044034
 20
71.94702049999991
 30
0.0
 11
54.3908905
 21
76.18873
 31
0.0
  0
LINE
  5
112
330
1E
100
AcDbEntity
  8
CSLAYER1
  6
CONTINUOUS
 62
     3
100
AcDbLine
 10
54.44446
 20
71.29013149999996
 30
0.0
 11
55.16198000000001
 21
76.28525849999995
 31
0.0
  0
LINE
  5
113
330
1E
100
AcDbEntity
  8
CSLAYER1
  6
CONTINUOUS
 62
     3
100
AcDbLine
 10
47.044034
 20
70.233243
 30
0.0
 11
54.3505665
 21
66.01481399999996
 31
0.0
  0
LINE
  5
114
330
1E
100
AcDbEntity
  8
CSLAYER1
  6
CONTINUOUS
 62
     3
100
AcDbLine
 10
54.44446
 20
70.89013149999995
 30
0.0
 11
55.16198000000001
 21
65.89500449999995
 31
0.0
  0
LINE
  5
115
330
1E
100
AcDbEntity
  8
CSLAYER1
  6
DASHED
 62
     4
100
AcDbLine
 10
58.674054
 20
44.3766775
 30
0.0
 11
56.1618015
 21
40.025329
 31
0.0
  0
LINE
  5
117
330
1E
100
AcDbEntity
  8
CSLAYER1
  6
CONTINUOUS
 62
     3
100
AcDbLine
 10
46.3717105
 20
47.31710549999999
 30
0.0
 11
57.50203649999996
 21
44.3347435
 31
0.0
  0
LINE
  5
118
330
1E
100
AcDbEntity
  8
CSLAYER1
  6
CONTINUOUS
 62
     3
100
AcDbLine
 10
60.37171049999995
 20
47.31710549999999
 30
0.0
 11
59.95152649999995
 21
45.74895699999999
 31
0.0
  0
ARC
  5
119
330
1E
100
AcDbEntity
  8
CSLAYER1
  6
CONTINUOUS
 62
     3
100
AcDbCircle
 10
58.01967499999999
 20
46.266595
 30
0.0
 40
2.0
100
AcDbArc
 50
255.0
 51
345.0
  0
LINE
  5
11A
330
1E
100
AcDbEntity
  8
CSLAYER1
  6
CONTINUOUS
 62
     3
100
AcDbLine
 10
58.674054
 20
71.2862745
 30
0.0
 11
55.73211
 21
75.86339800000001
 31
0.0
  0
ARC
  5
11B
330
1E
100
AcDbEntity
  8
CSLAYER1
  6
CONTINUOUS
 62
     3
100
AcDbCircle
 10
54.8908905
 20
75.3227045
 30
0.0
 40
1.0
100
AcDbArc
 50
32.730861
 51
119.9999999999999
  0
LINE
  5
11C
330
1E
100
AcDbEntity
  8
CSLAYER1
  6
CONTINUOUS
 62
     3
100
AcDbLine
 10
58.674054
 20
70.89398850000001
 30
0.0
 11
55.73211
 21
66.316865
 31
0.0
  0
ARC
  5
11D
330
1E
100
AcDbEntity
  8
CSLAYER1
  6
CONTINUOUS
 62
     3
100
AcDbCircle
 10
54.8908905
 20
66.85755849999999
 30
0.0
 40
1.0
100
AcDbArc
 50
239.9999999999999
 51
327.2691389999998
  0
LINE
  5
11E
330
1E
100
AcDbEntity
  8
CSLAYER1
  6
CENTER
 62
     4
100
AcDbLine
 10
54.41573100000001
 20
71.0901315
 30
0.0
 11
129.0660335
 21
71.0901315
 31
0.0
  0
LINE
  5
125
330
1E
100
AcDbEntity
  8
CSLAYER1
  6
CONTINUOUS
 62
     3
100
AcDbLine
 10
57.82894749999996
 20
24.1275485
 30
0.0
 11
51.58891899999995
 21
24.59104599999999
 31
0.0
  0
ARC
  5
126
330
1E
100
AcDbEntity
  8
CSLAYER1
  6
CONTINUOUS
 62
     3
100
AcDbCircle
 10
49.737067
 20
-0.3402725
 30
0.0
 40
25.0
100
AcDbArc
 50
85.751977
 51
138.8820799999999
  0
LINE
  5
127
330
1E
100
AcDbEntity
  8
CSLAYER1
  6
CONTINUOUS
 62
     3
100
AcDbLine
 10
30.9031235
 20
16.1
 30
0.0
 11
38.9244925
 21
15.5041875
 31
0.0
  0
LINE
  5
128
330
1E
100
AcDbEntity
  8
CSLAYER1
  6
CONTINUOUS
 62
     3
100
AcDbLine
 10
45.86360999999999
 20
15.06042
 30
0.0
 11
49.5960405
 21
24.6593295
 31
0.0
  0
LINE
  5
129
330
1E
100
AcDbEntity
  8
CSLAYER1
  6
CONTINUOUS
 62
     3
100
AcDbLine
 10
45.551278
 20
24.30682
 30
0.0
 11
44.87947650000001
 21
15.2624135
 31
0.0
  0
CIRCLE
  5
12A
330
1E
100
AcDbEntity
  8
CSLAYER1
  6
CONTINUOUS
 62
     3
100
AcDbCircle
 10
57.82894749999996
 20
14.1
 30
0.0
 40
2.049999999999998
  0
CIRCLE
  5
12B
330
1E
100
AcDbEntity
  8
CSLAYER1
  6
CONTINUOUS
 62
     3
100
AcDbCircle
 10
57.82894749999996
 20
14.1
 30
0.0
 40
6.4
  0
ARC
  5
12C
330
1E
100
AcDbEntity
  8
CSLAYER1
  6
CONTINUOUS
 62
     3
100
AcDbCircle
 10
57.82894749999996
 20
14.1
 30
0.0
 40
10.5
100
AcDbArc
 50
112.000813
 51
174.057434
  0
LINE
  5
12D
330
1E
100
AcDbEntity
  8
CSLAYER1
  6
CONTINUOUS
 62
     3
100
AcDbLine
 10
13.6977135
 20
16.1
 30
0.0
 11
20.699789
 21
26.1
 31
0.0
  0
LINE
  5
12E
330
1E
100
AcDbEntity
  8
CSLAYER1
  6
CONTINUOUS
 62
     3
100
AcDbLine
 10
20.699789
 20
26.1
 30
0.0
 11
14.8228915
 21
26.1
 31
0.0
  0
ARC
  5
12F
330
1E
100
AcDbEntity
  8
CSLAYER1
  6
CONTINUOUS
 62
     3
100
AcDbCircle
 10
58.6977135
 20
16.1
 30
0.0
 40
45.0
100
AcDbArc
 50
167.160412
 51
180.0
  0
LINE
  5
130
330
1E
100
AcDbEntity
  8
CSLAYER1
  6
CENTER
 62
     4
100
AcDbLine
 10
22.25940199999999
 20
14.1
 30
0.0
 11
9.9227395
 21
14.1
 31
0.0
  0
LINE
  5
131
330
1E
100
AcDbEntity
  8
CSLAYER1
  6
CENTER
 62
     4
100
AcDbLine
 10
57.82894749999996
 20
2.0723685
 30
0.0
 11
57.82894749999996
 21
26.4226975
 31
0.0
  0
LINE
  5
132
330
1E
100
AcDbEntity
  8
CSLAYER1
  6
CONTINUOUS
 62
     3
100
AcDbLine
 10
31.637073
 20
16.904733
 30
0.0
 11
39.27794650000001
 21
20.590578
 31
0.0
  0
LINE
  5
133
330
1E
100
AcDbEntity
  8
CSLAYER1
  6
CONTINUOUS
 62
     3
100
AcDbLine
 10
38.96850949999999
 20
15.701469
 30
0.0
 11
40.054068
 21
20.62972349999998
 31
0.0
  0
LINE
  5
134
330
1E
100
AcDbEntity
  8
CSLAYER1
  6
CONTINUOUS
 62
     3
100
AcDbLine
 10
43.18401149999998
 20
15.3883495
 30
0.0
 11
40.5913825
 21
20.16678999999999
 31
0.0
  0
ARC
  5
135
330
1E
100
AcDbEntity
  8
CSLAYER1
  6
CONTINUOUS
 62
     3
100
AcDbCircle
 10
39.71242249999999
 20
19.6898945
 30
0.0
 40
1.0
100
AcDbArc
 50
28.482839
 51
115.751977
  0
LINE
  5
136
330
1E
100
AcDbEntity
  8
CSLAYER1
  6
CENTER
 62
     4
100
AcDbLine
 10
29.020007
 20
14.1
 30
0.0
 11
66.910362
 21
14.1
 31
0.0
  0
LINE
  5
137
330
1E
100
AcDbEntity
  8
CSLAYER1
  6
CONTINUOUS
 62
     3
100
AcDbLine
 10
66.54770999999989
 20
4.720064999999999
 30
0.0
 11
51.58891899999995
 21
3.608954
 31
0.0
  0
ARC
  5
138
330
1E
100
AcDbEntity
  8
CSLAYER1
  6
CONTINUOUS
 62
     3
100
AcDbCircle
 10
49.737067
 20
28.54027249999999
 30
0.0
 40
25.0
100
AcDbArc
 50
221.11792
 51
274.2480229999999
  0
LINE
  5
139
330
1E
100
AcDbEntity
  8
CSLAYER1
  6
CONTINUOUS
 62
     3
100
AcDbLine
 10
30.9031235
 20
12.09999999999999
 30
0.0
 11
38.9244925
 21
12.6958125
 31
0.0
  0
LINE
  5
13A
330
1E
100
AcDbEntity
  8
CSLAYER1
  6
CONTINUOUS
 62
     3
100
AcDbLine
 10
45.551278
 20
3.89318
 30
0.0
 11
44.87947650000001
 21
12.9375865
 31
0.0
  0
LINE
  5
13B
330
1E
100
AcDbEntity
  8
CSLAYER1
  6
CONTINUOUS
 62
     3
100
AcDbLine
 10
31.637073
 20
11.29526699999999
 30
0.0
 11
39.27794650000001
 21
7.609422
 31
0.0
  0
LINE
  5
13C
330
1E
100
AcDbEntity
  8
CSLAYER1
  6
CONTINUOUS
 62
     3
100
AcDbLine
 10
38.96850949999999
 20
12.498531
 30
0.0
 11
40.054068
 21
7.5702765
 31
0.0
  0
LINE
  5
13D
330
1E
100
AcDbEntity
  8
CSLAYER1
  6
CONTINUOUS
 62
     3
100
AcDbLine
 10
43.18401149999998
 20
12.8116505
 30
0.0
 11
40.5913825
 21
8.03321
 31
0.0
  0
ARC
  5
13E
330
1E
100
AcDbEntity
  8
CSLAYER1
  6
CONTINUOUS
 62
     3
100
AcDbCircle
 10
39.71242249999999
 20
8.510105499999999
 30
0.0
 40
1.0
100
AcDbArc
 50
244.248023
 51
331.517161
  0
LINE
  5
13F
330
1E
100
AcDbEntity
  8
CSLAYER1
  6
CONTINUOUS
 62
     3
100
AcDbLine
 10
38.93930749999999
 20
12.496362
 30
0.0
 11
38.9244925
 21
12.6958125
 31
0.0
  0
LINE
  5
140
330
1E
100
AcDbEntity
  8
CSLAYER1
  6
CONTINUOUS
 62
     3
100
AcDbLine
 10
13.6977135
 20
12.09999999999999
 30
0.0
 11
20.699789
 21
2.1
 31
0.0
  0
LINE
  5
141
330
1E
100
AcDbEntity
  8
CSLAYER1
  6
CONTINUOUS
 62
     3
100
AcDbLine
 10
20.699789
 20
2.1
 30
0.0
 11
14.8228915
 21
2.1
 31
0.0
  0
ARC
  5
142
330
1E
100
AcDbEntity
  8
CSLAYER1
  6
CONTINUOUS
 62
     3
100
AcDbCircle
 10
58.6977135
 20
12.09999999999999
 30
0.0
 40
45.0
100
AcDbArc
 50
180.0
 51
192.839588
  0
LINE
  5
144
330
1E
100
AcDbEntity
  8
CSLAYER1
  6
CONTINUOUS
 62
     3
100
AcDbLine
 10
63.33308199999995
 20
24.536385
 30
0.0
 11
53.89544
 21
23.83537449999999
 31
0.0
  0
LINE
  5
148
330
1E
100
AcDbEntity
  8
CSLAYER1
  6
CONTINUOUS
 62
     3
100
AcDbLine
 10
54.415177
 20
70.89013149999995
 30
0.0
 11
60.5767895
 21
70.89013149999995
 31
0.0
  0
ARC
  5
149
330
1E
100
AcDbEntity
  8
CSLAYER1
  6
CONTINUOUS
 62
     3
100
AcDbCircle
 10
60.5767895
 20
73.39013149999995
 30
0.0
 40
2.5
100
AcDbArc
 50
270.0
 51
349.809411
  0
LINE
  5
14A
330
1E
100
AcDbEntity
  8
CSLAYER1
  6
CONTINUOUS
 62
     3
100
AcDbLine
 10
54.415177
 20
71.29013149999996
 30
0.0
 11
54.415177
 21
70.89013149999995
 31
0.0
  0
LINE
  5
14B
330
1E
100
AcDbEntity
  8
CSLAYER1
  6
CONTINUOUS
 62
     3
100
AcDbLine
 10
54.415177
 20
71.29013149999996
 30
0.0
 11
60.5767895
 21
71.29013149999996
 31
0.0
  0
ARC
  5
14C
330
1E
100
AcDbEntity
  8
CSLAYER1
  6
CONTINUOUS
 62
     3
100
AcDbCircle
 10
60.5767895
 20
68.7901315
 30
0.0
 40
2.5
100
AcDbArc
 50
66.92608199999999
 51
90.0
  0
LINE
  5
14D
330
1E
100
AcDbEntity
  8
CSLAYER1
  6
CONTINUOUS
 62
     3
100
AcDbLine
 10
38.93930749999999
 20
12.496362
 30
0.0
 11
45.0839925
 21
12.9527775
 31
0.0
  0
ARC
  5
14E
330
1E
100
AcDbEntity
  8
CSLAYER1
  6
CONTINUOUS
 62
     3
100
AcDbCircle
 10
44.89880699999999
 20
15.4459095
 30
0.0
 40
2.5
100
AcDbArc
 50
274.2480229999999
 51
354.057434
  0
LINE
  5
14F
330
1E
100
AcDbEntity
  8
CSLAYER1
  6
CONTINUOUS
 62
     3
100
AcDbLine
 10
38.93930749999999
 20
15.70363799999999
 30
0.0
 11
38.9244925
 21
15.5041875
 31
0.0
  0
LINE
  5
150
330
1E
100
AcDbEntity
  8
CSLAYER1
  6
CONTINUOUS
 62
     3
100
AcDbLine
 10
38.93930749999999
 20
15.70363799999999
 30
0.0
 11
45.0839925
 21
15.2472225
 31
0.0
  0
ARC
  5
151
330
1E
100
AcDbEntity
  8
CSLAYER1
  6
CONTINUOUS
 62
     3
100
AcDbCircle
 10
44.89880699999999
 20
12.7540905
 30
0.0
 40
2.5
100
AcDbArc
 50
32.572322
 51
85.751977
  0
LINE
  5
152
330
1E
100
AcDbEntity
  8
CSLAYER1
  6
DOT
 62
     3
100
AcDbLine
 10
2.5
 20
0.5
 30
0.0
 11
142.0
 21
0.5
 31
0.0
  0
LINE
  5
153
330
1E
100
AcDbEntity
  8
CSLAYER1
  6
DOT
 62
     3
100
AcDbLine
 10
142.0
 20
0.5
 30
0.0
 11
142.0
 21
97.5
 31
0.0
  0
LINE
  5
154
330
1E
100
AcDbEntity
  8
CSLAYER1
  6
DOT
 62
     3
100
AcDbLine
 10
142.0
 20
97.5
 30
0.0
 11
2.5
 21
97.5
 31
0.0
  0
LINE
  5
155
330
1E
100
AcDbEntity
  8
CSLAYER1
  6
DOT
 62
     3
100
AcDbLine
 10
2.5
 20
97.5
 30
0.0
 11
2.5
 21
0.5
 31
0.0
  0
LINE
  5
156
330
1E
100
AcDbEntity
  8
CSLAYER1
  6
DOT
 62
     3
100
AcDbLine
 10
72.25
 20
97.5
 30
0.0
 11
72.25
 21
99.50000000000001
 31
0.0
  0
LINE
  5
157
330
1E
100
AcDbEntity
  8
CSLAYER1
  6
DOT
 62
     3
100
AcDbLine
 10
142.0
 20
49.0
 30
0.0
 11
144.0
 21
49.0
 31
0.0
  0
LINE
  5
158
330
1E
100
AcDbEntity
  8
CSLAYER1
  6
DOT
 62
     3
100
AcDbLine
 10
2.5
 20
49.0
 30
0.0
 11
0.5
 21
49.0
 31
0.0
  0
TEXT
  5
19A
330
1E
100
AcDbEntity
  8
CSLAYER1
 62
     4
100
AcDbText
 10
58.37171149999999
 20
90.90148949999997
 30
0.0
 40
1.5
  1
27
 41
1.199999999999982
 51
15.0
  7
FX_FONT
 72
     5
 11
61.37171149999995
 21
90.90148949999997
 31
0.0
100
AcDbText
  0
LINE
  5
19B
330
1E
100
AcDbEntity
  8
CSLAYER1
 62
     4
100
AcDbLine
 10
46.3717105
 20
90.40148349999995
 30
0.0
 11
73.37171049999994
 21
90.40148349999995
 31
0.0
  0
LINE
  5
19C
330
1E
100
AcDbEntity
  8
CSLAYER1
 62
     4
100
AcDbLine
 10
46.3717105
 20
90.40148349999995
 30
0.0
 11
47.82059949999999
 21
90.78971199999996
 31
0.0
  0
LINE
  5
19D
330
1E
100
AcDbEntity
  8
CSLAYER1
 62
     4
100
AcDbLine
 10
46.3717105
 20
90.40148349999995
 30
0.0
 11
47.82059949999999
 21
90.013255
 31
0.0
  0
LINE
  5
19E
330
1E
100
AcDbEntity
  8
CSLAYER1
 62
     4
100
AcDbLine
 10
73.37171049999994
 20
90.40148349999995
 30
0.0
 11
71.92282199999995
 21
90.78971199999996
 31
0.0
  0
LINE
  5
19F
330
1E
100
AcDbEntity
  8
CSLAYER1
 62
     4
100
AcDbLine
 10
73.37171049999994
 20
90.40148349999995
 30
0.0
 11
71.92282199999995
 21
90.013255
 31
0.0
  0
LINE
  5
1A0
330
1E
100
AcDbEntity
  8
CSLAYER1
 62
     4
100
AcDbLine
 10
46.3717105
 20
71.59013149999996
 30
0.0
 11
46.3717105
 21
90.90148349999996
 31
0.0
  0
LINE
  5
1A1
330
1E
100
AcDbEntity
  8
CSLAYER1
 62
     4
100
AcDbLine
 10
73.37171049999994
 20
85.39013149999995
 30
0.0
 11
73.37171049999994
 21
90.90148349999996
 31
0.0
  0
TEXT
  5
1A2
330
1E
100
AcDbEntity
  8
CSLAYER1
 62
     4
100
AcDbText
 10
41.35180650000001
 20
67.34013349999995
 30
0.0
 40
1.5
  1
20~21
 50
90.0
 41
1.111111111111111
 51
15.0
  7
FX_FONT
 72
     5
 11
41.35180650000001
 21
74.84013349999995
 31
0.0
100
AcDbText
  0
LINE
  5
1A3
330
1E
100
AcDbEntity
  8
CSLAYER1
 62
     4
100
AcDbLine
 10
41.851807
 20
61.09013149999995
 30
0.0
 11
41.851807
 21
81.09013149999995
 31
0.0
  0
LINE
  5
1A4
330
1E
100
AcDbEntity
  8
CSLAYER1
 62
     4
100
AcDbLine
 10
41.851807
 20
61.09013149999995
 30
0.0
 11
41.46357800000001
 21
62.53902049999995
 31
0.0
  0
LINE
  5
1A5
330
1E
100
AcDbEntity
  8
CSLAYER1
 62
     4
100
AcDbLine
 10
41.851807
 20
61.09013149999995
 30
0.0
 11
42.24003549999999
 21
62.53902049999995
 31
0.0
  0
LINE
  5
1A6
330
1E
100
AcDbEntity
  8
CSLAYER1
 62
     4
100
AcDbLine
 10
41.851807
 20
81.09013149999995
 30
0.0
 11
41.46357800000001
 21
79.641243
 31
0.0
  0
LINE
  5
1A7
330
1E
100
AcDbEntity
  8
CSLAYER1
 62
     4
100
AcDbLine
 10
41.851807
 20
81.09013149999995
 30
0.0
 11
42.24003549999999
 21
79.641243
 31
0.0
  0
LINE
  5
1A8
330
1E
100
AcDbEntity
  8
CSLAYER1
 62
     4
100
AcDbLine
 10
65.87171049999989
 20
61.09013149999995
 30
0.0
 11
41.351807
 21
61.09013149999995
 31
0.0
  0
LINE
  5
1A9
330
1E
100
AcDbEntity
  8
CSLAYER1
 62
     4
100
AcDbLine
 10
65.87171049999989
 20
81.09013149999995
 30
0.0
 11
41.351807
 21
81.09013149999995
 31
0.0
  0
TEXT
  5
1AA
330
1E
100
AcDbEntity
  8
CSLAYER1
 62
     4
100
AcDbText
 10
29.757888
 20
65.43545199999996
 30
0.0
 40
1.5
  1
R45
 50
9.256010400475233
 41
1.125000064431114
 51
15.0
  7
FX_FONT
 72
     5
 11
34.199296
 21
66.15925949999989
 31
0.0
100
AcDbText
  0
LINE
  5
1AB
330
1E
100
AcDbEntity
  8
CSLAYER1
 62
     4
100
AcDbLine
 10
23.15048999999999
 20
63.8520574999999
 30
0.0
 11
40.96753999999999
 21
66.755667
 31
0.0
  0
LINE
  5
1AC
330
1E
100
AcDbEntity
  8
CSLAYER1
 62
     4
100
AcDbLine
 10
23.15048999999999
 20
63.8520574999999
 30
0.0
 11
24.5180685
 21
64.46827950000001
 31
0.0
  0
LINE
  5
1AD
330
1E
100
AcDbEntity
  8
CSLAYER1
 62
     4
100
AcDbLine
 10
23.15048999999999
 20
63.8520574999999
 30
0.0
 11
24.6429585
 21
63.70193199999995
 31
0.0
  0
TEXT
  5
1AE
330
1E
100
AcDbEntity
  8
CSLAYER1
 62
     4
100
AcDbText
 10
57.9477765
 20
63.820439
 30
0.0
 40
1.5
  1
R25
 50
70.48322084600854
 41
1.124999966374752
 51
15.0
  7
FX_FONT
 72
     5
 11
59.45114949999995
 21
68.0618855
 31
0.0
100
AcDbText
  0
LINE
  5
1AF
330
1E
100
AcDbEntity
  8
CSLAYER1
 62
     4
100
AcDbLine
 10
58.01963950000001
 20
62.5265385
 30
0.0
 11
62.01395799999995
 21
73.79565949999996
 31
0.0
  0
LINE
  5
1B0
330
1E
100
AcDbEntity
  8
CSLAYER1
 62
     4
100
AcDbLine
 10
58.01963950000001
 20
62.5265385
 30
0.0
 11
58.137766
 21
64.02188000000001
 31
0.0
  0
LINE
  5
1B1
330
1E
100
AcDbEntity
  8
CSLAYER1
 62
     4
100
AcDbLine
 10
58.01963950000001
 20
62.5265385
 30
0.0
 11
58.86961099999995
 21
63.762479
 31
0.0
  0
LINE
  5
1B2
330
1E
100
AcDbEntity
  8
CSLAYER1
  6
CONTINUOUS
 62
     4
100
AcDbLine
 10
72.77234849999991
 20
69.12970699999995
 30
0.0
 11
68.87648100000001
 21
54.59013149999996
 31
0.0
  0
LINE
  5
1B3
330
1E
100
AcDbEntity
  8
CSLAYER1
  6
CONTINUOUS
 62
     4
100
AcDbLine
 10
72.77234849999991
 20
69.12970699999995
 30
0.0
 11
72.77234849999991
 21
67.62970699999995
 31
0.0
  0
LINE
  5
1B4
330
1E
100
AcDbEntity
  8
CSLAYER1
  6
CONTINUOUS
 62
     4
100
AcDbLine
 10
72.77234849999991
 20
69.12970699999995
 30
0.0
 11
72.02234849999995
 21
67.8306685
 31
0.0
  0
LINE
  5
1B5
330
1E
100
AcDbEntity
  8
CSLAYER1
  6
CONTINUOUS
 62
     4
100
AcDbLine
 10
68.87648100000001
 20
54.59013149999996
 30
0.0
 11
61.876481
 21
54.59013149999996
 31
0.0
  0
TEXT
  5
1B6
330
1E
100
AcDbEntity
  8
CSLAYER1
 62
     4
100
AcDbText
 10
62.37648
 20
55.09013
 30
0.0
 40
1.5
  1
%%c4.1
 41
1.142857142857141
 51
15.0
  7
FX_FONT
 72
     5
 11
68.37648
 21
55.09013
 31
0.0
100
AcDbText
  0
TEXT
  5
1B7
330
1E
100
AcDbEntity
  8
CSLAYER1
 62
     4
100
AcDbText
 10
65.3717115
 20
51.79111500000001
 30
0.0
 40
1.5
  1
13
 41
1.199999999999999
 51
15.0
  7
FX_FONT
 72
     5
 11
68.3717115
 21
51.79111500000001
 31
0.0
100
AcDbText
  0
LINE
  5
1B8
330
1E
100
AcDbEntity
  8
CSLAYER1
 62
     4
100
AcDbLine
 10
60.37171049999995
 20
51.29111849999995
 30
0.0
 11
73.37171049999994
 21
51.29111849999995
 31
0.0
  0
LINE
  5
1B9
330
1E
100
AcDbEntity
  8
CSLAYER1
 62
     4
100
AcDbLine
 10
60.37171049999995
 20
51.29111849999995
 30
0.0
 11
61.8205995
 21
51.67934699999995
 31
0.0
  0
LINE
  5
1BA
330
1E
100
AcDbEntity
  8
CSLAYER1
 62
     4
100
AcDbLine
 10
60.37171049999995
 20
51.29111849999995
 30
0.0
 11
61.8205995
 21
50.90289
 31
0.0
  0
LINE
  5
1BB
330
1E
100
AcDbEntity
  8
CSLAYER1
 62
     4
100
AcDbLine
 10
73.37171049999994
 20
51.29111849999995
 30
0.0
 11
71.92282199999995
 21
51.67934699999995
 31
0.0
  0
LINE
  5
1BC
330
1E
100
AcDbEntity
  8
CSLAYER1
 62
     4
100
AcDbLine
 10
73.37171049999994
 20
51.29111849999995
 30
0.0
 11
71.92282199999995
 21
50.90289
 31
0.0
  0
LINE
  5
1BD
330
1E
100
AcDbEntity
  8
CSLAYER1
 62
     4
100
AcDbLine
 10
60.37171049999995
 20
47.81710549999999
 30
0.0
 11
60.37171049999995
 21
51.79111849999995
 31
0.0
  0
LINE
  5
1BE
330
1E
100
AcDbEntity
  8
CSLAYER1
 62
     4
100
AcDbLine
 10
73.37171049999994
 20
49.48258649999999
 30
0.0
 11
73.37171049999994
 21
51.79111849999995
 31
0.0
  0
TEXT
  5
1BF
330
1E
100
AcDbEntity
  8
CSLAYER1
 62
     4
100
AcDbText
 10
37.27973950000001
 20
42.07685849999999
 30
0.0
 40
1.5
  1
9   
 50
90.0
 41
1.42857142857143
 51
15.0
  7
FX_FONT
 72
     5
 11
37.27973950000001
 21
48.0768585
 31
0.0
100
AcDbText
  0
TEXT
  5
1C0
330
1E
100
AcDbEntity
  8
CSLAYER1
 62
     4
100
AcDbText
 10
36.52973950000001
 20
48.0768585
 30
0.0
 40
0.75
  1
  0
 50
90.0
 41
1.607142857142857
 51
15.0
  7
FX_FONT
 72
     5
 11
36.52973950000001
 21
50.3268585
 31
0.0
100
AcDbText
  0
TEXT
  5
1C1
330
1E
100
AcDbEntity
  8
CSLAYER1
 62
     4
100
AcDbText
 10
37.27973950000001
 20
48.0768585
 30
0.0
 40
0.75
  1
-0.15
 50
90.0
 41
1.071428571428571
 51
15.0
  7
FX_FONT
 72
     5
 11
37.27973950000001
 21
51.8268585
 31
0.0
100
AcDbText
  0
LINE
  5
1C2
330
1E
100
AcDbEntity
  8
CSLAYER1
 62
     4
100
AcDbLine
 10
37.77973950000001
 20
38.31710549999998
 30
0.0
 11
37.77973950000001
 21
47.31710549999999
 31
0.0
  0
LINE
  5
1C3
330
1E
100
AcDbEntity
  8
CSLAYER1
 62
     4
100
AcDbLine
 10
37.77973950000001
 20
38.31710549999998
 30
0.0
 11
37.391511
 21
39.76599399999999
 31
0.0
  0
LINE
  5
1C4
330
1E
100
AcDbEntity
  8
CSLAYER1
 62
     4
100
AcDbLine
 10
37.77973950000001
 20
38.31710549999998
 30
0.0
 11
38.167968
 21
39.76599399999999
 31
0.0
  0
LINE
  5
1C5
330
1E
100
AcDbEntity
  8
CSLAYER1
 62
     4
100
AcDbLine
 10
37.77973950000001
 20
47.31710549999999
 30
0.0
 11
37.391511
 21
45.8682165
 31
0.0
  0
LINE
  5
1C6
330
1E
100
AcDbEntity
  8
CSLAYER1
 62
     4
100
AcDbLine
 10
37.77973950000001
 20
47.31710549999999
 30
0.0
 11
38.167968
 21
45.8682165
 31
0.0
  0
LINE
  5
1C7
330
1E
100
AcDbEntity
  8
CSLAYER1
 62
     4
100
AcDbLine
 10
55.8717105
 20
38.31710549999998
 30
0.0
 11
37.27973950000001
 21
38.31710549999998
 31
0.0
  0
LINE
  5
1C8
330
1E
100
AcDbEntity
  8
CSLAYER1
 62
     4
100
AcDbLine
 10
59.87171049999995
 20
47.31710549999999
 30
0.0
 11
37.27973950000001
 21
47.31710549999999
 31
0.0
  0
TEXT
  5
1C9
330
1E
100
AcDbEntity
  8
CSLAYER1
 62
     4
100
AcDbText
 10
39.6823265
 20
36.8023435
 30
0.0
 40
1.7812935
  1
切刃部有効10.5
 50
319.9999996078396
 41
0.4881387268402214
 51
15.0
  7
FX_FONT
 72
     5
 11
46.12119349999999
 21
31.39949249999999
 31
0.0
100
AcDbText
  0
LINE
  5
1CA
330
1E
100
AcDbEntity
  8
CSLAYER1
 62
     4
100
AcDbLine
 10
38.40879000000001
 20
37.21826200000001
 30
0.0
 11
46.45225649999999
 21
30.4689925
 31
0.0
  0
LINE
  5
1CB
330
1E
100
AcDbEntity
  8
CSLAYER1
 62
     4
100
AcDbLine
 10
38.40879000000001
 20
37.21826200000001
 30
0.0
 11
39.76825149999999
 21
36.58433499999999
 31
0.0
  0
LINE
  5
1CC
330
1E
100
AcDbEntity
  8
CSLAYER1
 62
     4
100
AcDbLine
 10
38.40879000000001
 20
37.21826200000001
 30
0.0
 11
39.2691545
 21
35.989534
 31
0.0
  0
LINE
  5
1CD
330
1E
100
AcDbEntity
  8
CSLAYER1
 62
     4
100
AcDbLine
 10
46.45225649999999
 20
30.4689925
 30
0.0
 11
45.092795
 21
31.1029195
 31
0.0
  0
LINE
  5
1CE
330
1E
100
AcDbEntity
  8
CSLAYER1
 62
     4
100
AcDbLine
 10
46.45225649999999
 20
30.4689925
 30
0.0
 11
45.591892
 21
31.6977205
 31
0.0
  0
LINE
  5
1CF
330
1E
100
AcDbEntity
  8
CSLAYER1
 62
     4
100
AcDbLine
 10
46.05031649999999
 20
46.32507949999999
 30
0.0
 11
38.08739600000001
 21
36.83524
 31
0.0
  0
LINE
  5
1D0
330
1E
100
AcDbEntity
  8
CSLAYER1
 62
     4
100
AcDbLine
 10
54.0937834999999
 20
39.5758095
 30
0.0
 11
46.1308625
 21
30.08596999999999
 31
0.0
  0
TEXT
  5
1D1
330
1E
100
AcDbEntity
  8
CSLAYER1
 62
     4
100
AcDbText
 10
63.37171149999989
 20
31.5056475
 30
0.0
 40
1.5
  1
17
 41
1.200000000000042
 51
15.0
  7
FX_FONT
 72
     5
 11
66.3717115
 21
31.5056475
 31
0.0
100
AcDbText
  0
LINE
  5
1D2
330
1E
100
AcDbEntity
  8
CSLAYER1
 62
     4
100
AcDbLine
 10
56.3717105
 20
31.00564699999999
 30
0.0
 11
73.37171049999994
 21
31.00564699999999
 31
0.0
  0
LINE
  5
1D3
330
1E
100
AcDbEntity
  8
CSLAYER1
 62
     4
100
AcDbLine
 10
56.3717105
 20
31.00564699999999
 30
0.0
 11
57.8205995
 21
31.393876
 31
0.0
  0
LINE
  5
1D4
330
1E
100
AcDbEntity
  8
CSLAYER1
 62
     4
100
AcDbLine
 10
56.3717105
 20
31.00564699999999
 30
0.0
 11
57.8205995
 21
30.6174185
 31
0.0
  0
LINE
  5
1D5
330
1E
100
AcDbEntity
  8
CSLAYER1
 62
     4
100
AcDbLine
 10
73.37171049999994
 20
31.00564699999999
 30
0.0
 11
71.92282199999995
 21
31.393876
 31
0.0
  0
LINE
  5
1D6
330
1E
100
AcDbEntity
  8
CSLAYER1
 62
     4
100
AcDbLine
 10
73.37171049999994
 20
31.00564699999999
 30
0.0
 11
71.92282199999995
 21
30.6174185
 31
0.0
  0
LINE
  5
1D7
330
1E
100
AcDbEntity
  8
CSLAYER1
 62
     4
100
AcDbLine
 10
56.3717105
 20
37.81710549999999
 30
0.0
 11
56.3717105
 21
30.50564699999999
 31
0.0
  0
LINE
  5
1D8
330
1E
100
AcDbEntity
  8
CSLAYER1
 62
     4
100
AcDbLine
 10
73.37171049999994
 20
36.07474299999999
 30
0.0
 11
73.37171049999994
 21
30.50564699999999
 31
0.0
  0
TEXT
  5
1D9
330
1E
100
AcDbEntity
  8
CSLAYER1
 62
     4
100
AcDbText
 10
26.251337
 20
13.3500005
 30
0.0
 40
1.5
  1
4
 50
90.0
 41
1.5
 51
15.0
  7
FX_FONT
 72
     5
 11
26.251337
 21
14.8500005
 31
0.0
100
AcDbText
  0
LINE
  5
1DA
330
1E
100
AcDbEntity
  8
CSLAYER1
 62
     4
100
AcDbLine
 10
26.75133699999999
 20
12.09999999999999
 30
0.0
 11
26.75133699999999
 21
16.1
 31
0.0
  0
LINE
  5
1DB
330
1E
100
AcDbEntity
  8
CSLAYER1
 62
     4
100
AcDbLine
 10
26.75133699999999
 20
12.09999999999999
 30
0.0
 11
26.363108
 21
13.5488885
 31
0.0
  0
LINE
  5
1DC
330
1E
100
AcDbEntity
  8
CSLAYER1
 62
     4
100
AcDbLine
 10
26.75133699999999
 20
12.09999999999999
 30
0.0
 11
27.1395655
 21
13.5488885
 31
0.0
  0
LINE
  5
1DD
330
1E
100
AcDbEntity
  8
CSLAYER1
 62
     4
100
AcDbLine
 10
26.75133699999999
 20
16.1
 30
0.0
 11
26.363108
 21
14.6511115
 31
0.0
  0
LINE
  5
1DE
330
1E
100
AcDbEntity
  8
CSLAYER1
 62
     4
100
AcDbLine
 10
26.75133699999999
 20
16.1
 30
0.0
 11
27.1395655
 21
14.6511115
 31
0.0
  0
LINE
  5
1DF
330
1E
100
AcDbEntity
  8
CSLAYER1
 62
     4
100
AcDbLine
 10
30.4031235
 20
12.09999999999999
 30
0.0
 11
26.251337
 21
12.09999999999999
 31
0.0
  0
LINE
  5
1E0
330
1E
100
AcDbEntity
  8
CSLAYER1
 62
     4
100
AcDbLine
 10
30.4031235
 20
16.1
 30
0.0
 11
26.251337
 21
16.1
 31
0.0
  0
ENDSEC
  0
SECTION
  2
OBJECTS
  0
DICTIONARY
  5
C
330
0
100
AcDbDictionary
  3
ACAD_GROUP
350
D
  3
ACAD_LAYOUT
350
19
  3
ACAD_MLINESTYLE
350
16
  3
ACAD_PLOTSETTINGS
350
18
1001
ACAD
1000
TREAT_AS_HARD
1070
     0
1000
TREAT_AS_HARD
1070
     0
1000
TREAT_AS_HARD
1070
     0
  0
DICTIONARY
  5
162
330
1E
100
AcDbDictionary
  3
ACAD_LAYOUTSELFREF
350
1E5
1001
ACAD
1000
TREAT_AS_HARD
1070
     0
1000
TREAT_AS_HARD
1070
     0
  0
DICTIONARY
  5
160
330
1A
100
AcDbDictionary
  3
ACAD_LAYOUTSELFREF
350
1E4
1001
ACAD
1000
TREAT_AS_HARD
1070
     0
1000
TREAT_AS_HARD
1070
     0
  0
DICTIONARY
  5
D
102
{ACAD_REACTORS
330
C
102
}
330
C
100
AcDbDictionary
1001
ACAD
1000
TREAT_AS_HARD
1070
     0
1000
TREAT_AS_HARD
1070
     0
1000
TREAT_AS_HARD
1070
     0
  0
DICTIONARY
  5
19
102
{ACAD_REACTORS
330
C
102
}
330
C
100
AcDbDictionary
1001
ACAD
1000
TREAT_AS_HARD
1070
     0
1000
TREAT_AS_HARD
1070
     0
1000
TREAT_AS_HARD
1070
     0
  0
DICTIONARY
  5
16
102
{ACAD_REACTORS
330
C
102
}
330
C
100
AcDbDictionary
  3
STANDARD
350
17
1001
ACAD
1000
TREAT_AS_HARD
1070
     0
1000
TREAT_AS_HARD
1070
     0
1000
TREAT_AS_HARD
1070
     0
  0
DICTIONARY
  5
18
102
{ACAD_REACTORS
330
C
102
}
330
C
100
AcDbDictionary
1001
ACAD
1000
TREAT_AS_HARD
1070
     0
1000
TREAT_AS_HARD
1070
     0
1000
TREAT_AS_HARD
1070
     0
  0
XRECORD
  5
1E5
102
{ACAD_REACTORS
330
162
102
}
330
162
100
AcDbXrecord
340
1E
  0
XRECORD
  5
1E4
102
{ACAD_REACTORS
330
160
102
}
330
160
100
AcDbXrecord
340
1A
  0
MLINESTYLE
  5
17
102
{ACAD_REACTORS
330
16
102
}
330
16
100
AcDbMlineStyle
  2
STANDARD
 70
     0
  3

 62
   256
 51
90.0
 52
90.0
 71
     2
 49
0.5
 62
   256
  6
BYLAYER
 49
-0.5
 62
   256
  6
BYLAYER
  0
ENDSEC
  0
EOF
